Bob Marley

home > Bob Marley

Mellow Mood Bass Tab

Bob Marley

Difficulty: nolevelnolevel

by PAULLET3

tuner correct add songbook print version text version save to e-mail
chordsukulelecavacokeyboardtabbassdrumsharmonicsflute Guitar Pro
chords

Mellow Mood

Year: 2004 - Album: Fy-Ah, Fy-Ah

  		
Intro 
G|---------------------------------| 
D|10----------------10-------------|  x2 
A|--8-10-12-10-11-8----8-9-10-7-8-6| 
E|---------------------------------| 

Verse 
G|---------------------------------| 
D|10----------------10-------------|  X14 
A|--8-10-12-10-11-8----8-9-10-7-8-6| 
E|---------------------------------| 

Bridge 
 (strike the hammer...) 
G|--------------------------------| 
D|--------------------------------|  x3 
A|7-7-7-7-7-7-7-7-5-5-5-5-45-5-5-5| 
E|--------------------------------| 

 (open up your heart...) 
G|--------------------------------------------------------------------| 
D|6----------------6----------------6----------------4---------------4| 
A|-7-7-7-7-7-7-7-7--7-7-7-7-7-7-7-7--5-5-5-5-5-5-5-5--5-5-5-5-5-5-5-5-| 
E|--------------------------------------------------------------------| 

Verse 
G|---------------------------------| 
D|10----------------10-------------| 
A|--8-10-12-10-11-8----8-9-10-7-8-6| 
E|---------------------------------| 
	  

Search Paypal
auto scroll beats size up size down change color hide chords drawings
tab show chords e-chords YouTube Clip e-chords hide all tabs e-chords go to top tab