Blink 182

home > Blink 182

Fentoozler Bass Tab

Blink 182

Difficulty: nolevelnolevel

by Cinho+Punk+182

tuner correct add songbook print version text version save to e-mail
chordsukulelecavacokeyboardtabbassdrummharmonicsflute Guitar Pro
chords

Fentoozler

Year: 1994 - Album: Cheshire Cat

(Delonge / Hoppus)

  		Verse 
 
G:----------------------------------------------------------------- 
D:---------4-4-4-4-4-464---------2-2-2-2-2421---------------------- 
A:-2-2-2-2---------------2-2-2-2--------------2-2-2-2-4-4-4-4------ 
E:----------------------------------------------------------------- 
 
G:----------------- 
D:-2-2-2-2-4-2----- 
A:-------------4-2- 
E:----------------- 
 
Ending before Chorus 
 
G:--------- 
D:-4-2----- 
A:-----2-4- 
E:--------- 
 
Chorus 
 
G:------------------------------------------------------------------------- 
D:-------------2-2-2-2-2-2-------------4-4-4-4-4-4-------------2-2-2-2-2-2- 
A:-4-4-4-4-4-4-------------2-2-2-2-2-2-------------2-2-2-2-2-2------------- 
E:------------------------------------------------------------------------- 
 
This kinda blends into the verse, so don't be fooled. 
 
G:------------------------- 
D:-------------2-2-2-2-2-2- 
A:-2-2-2-2-2-2------------- 
E:------------------------- 
 
Outro: 
 
G:--------------------------------- 
D:---------2-----------4---------2- 
A:-4-4-4-4-----2-2-2-2---2-2-2-2--- 
E:--------------------------------- 
 
Ok, for the verse, you play it however many times I say, and then the verse  
before the Chorus, you play the other ending.  For example, if I say to play  
the verse four times, you play the regular verse 3 times, and then on the  
4th time, you end the different way.  It's hard to explain, but you'll get  
it. 
 
Order: 
Verse x4 (Remember, other ending at 4th time) 
Chorus x1 
Blend x1 
Verse x4 
Chorus x1 
Blend x1 
Verse x2 
Chorus x1 
Outro x1 
 
 
 
By: [email protected] 

	  

Search Paypal
auto scroll beats size up size down change color hide chords drawings
tab show chords e-chords YouTube Clip e-chords hide all tabs e-chords go to top tab