Blink 182

home > Blink 182

Dumpweed Bass Tab

Blink 182

Difficulty: nolevelnolevel

by Cinho+Punk+182

tuner correct add songbook print version text version save to e-mail
chordsukulelecavacokeyboardtabbassdrummharmonicsflute Guitar Pro
chords

Dumpweed

Year: 1999 - Album: Enema of the State

(Delonge / Hoppus)

  		RIFF #1 
G:--------------------------------------------- 
D:--------------------------------------------- 
A:----------------0---0-0---------------------- 
E:-0---0-0------------------------------------- 
 
RIFF #2 
G:------------------------------------------------ 
D:------------------------------------------------ 
A:----------00000000-2222222--0------------------- 
E:-00000000--------------------------------------- 
 
RIFF #3 
G:------------------------------------------------------------------- 
D:------------------------------------------------------------------- 
A:----------22222----------22222-00000000-22222222-00000000-22222222- 
E:-00000000-------00000000------------------------------------------- 
 
RIFF #4 
G:--------------------------------------------- 
D:--------------------------------------------- 
A:----------------0-----0---------------------- 
E:-0-----0------------------------------------- 
 
RIFF #5 Chorus 
G:-------------------------------------------------------------------- 
D:-------------------------------------------------------------------- 
A:----------22222222---------22222222-00000000-22222222-00000000-2--2- 
E:-00000000---------00000000------------------------------------------ 
 
*Order* 
Riff 1 x 1 
Riff 2 x 2 
Riff 3 x 2 
Riff 4 x 1 
Riff 5 x 1 
Riff 2 x 2 
Riff 3 x 1 
Riff 4 x 1 
Riff 5 x 2 
Riff 3 x 4 
 
 
 
By: [email protected] 

	  

Search Paypal
auto scroll beats size up size down change color hide chords drawings
tab show chords e-chords YouTube Clip e-chords hide all tabs e-chords go to top tab