Blink 182

home > Blink 182

Degenerate Bass Tab

Blink 182

Difficulty: EasyEasy

by Cinho+Punk+182

tuner correct add songbook print version text version save to e-mail
chordsukulelecavacokeyboardtabbassdrummharmonicsflute Guitar Pro
chords

Degenerate

Year: 1997 - Album: Dude Ranch

  		Intro: 
 
G|----------------------------------------------------| 
D|--------3-----0--0----------------------------------| 
A|---1--1--------------------3-3-3-3------------------|  
D|----------------------------------------------------| 
 
Verse: 
 
G|----------------------------------------------------| 
D|-----------3-3-3-3-0-0-0----------------------------| 
A|---1-1-1-1---------------3-3-3-3--------------------|  
D|----------------------------------------------------| 
 
Chorus/Guitar Solo: 
 
G|-----------------------------------------------------------------| 
D|---------------------------------1-1-1-1-1-1-1-1-3-3-3-3-3-3-3-3-| 
A|-1-1-1-1-1-1-1-1-------------------------------------------------|  
D|-----------------1-1-1-1-1-1-1-1---------------------------------| 
 
Intro2: 
 
G|----------------------------------------------------| 
D|--------3-----0--0----------------------------------| 
A|---1--1--------------------3------------------------|  
D|----------------------------------------------------| 
 
Order: 
 
Intro  x6 
Verse  x4 
Chorus x4 
 
Intro  x6 
Verse  x4 
Chorus x6 
 
Intro  x1 
Intro2 x1 
Chorus x2 
 
 
 
By: [email protected] 

	  

Search Paypal
auto scroll beats size up size down change color hide chords drawings
tab show chords e-chords YouTube Clip e-chords hide all tabs e-chords go to top tab