Blink 182

home > Blink 182

Ample Shampoo Bass Tab

Blink 182

Difficulty: nolevelnolevel

by Cinho+Punk+182

tuner correct add songbook print version text version save to e-mail
chordsukulelecavacokeyboardtabbassdrumsharmonicsflute Guitar Pro
chords

Ample Shampoo

Year: 1997 - Album: Dude Ranch

  		Intro:(She didn't mean to...) 
G:-------------------------------------------------------------------- 
D:-----------------3-3-3-3--5-5-5-5------------------3-3-3-3--5-5-5-5- 
A:-3-3-3-3-3-3-3-3-------------------3-3-3-3-3-3-3-3------------------ 
E:--------------------------------------------------------------------- 
 
G:-------------------------------------------------------------------- 
D:-------------------------------------------------------------------- 
A:-------------------------------------------------------5-5-5-5-8-8-8 
E:-5-5-5-5-5-5-5-5/13-13-13-13-13-13-13--5-5-5-5-5-5-5-5-------------- 
 
Into first verse(Riff 1) 
G:----------------------------------- 
D:-----------------3-3-3-3--5-5-5-5-- 
A:-3-3-3-3-3-3-3-3------------------- 
E:----------------------------------- 
 
First verse:(And she said...)(Riff 2) 
G:-------------------------------------------------------------------- 
D:-----------------3-3-3-3-3-3-3-3--5-5-5-5-5-5-5-5--3-3-3-3-3-3-3-3-- 
A:-3-3-3-3-3-3-3-3---------------------------------------------------- 
E:-------------------------------------------------------------------- 
 
Repeat riff one 
 
Next verse: Riff 2 
 
Next part(I never wanted to hold you back...) 
G:-------------------------------------------------------------------- 
D:-----------------3-3-3-3-3-3-3-3------------------------------------ 
A:-0-0-0-0-0-0-0-0-----------------0-0-0-0-0-0-0-0--5-5-5-5--8-8-8-8-- 
E:-------------------------------------------------------------------- 
 
Next part(I know...) 
G:----------------------------------------------------------- 
D:-------------------------5-5-5-5-5-5-5-5--3-3-3-3-3-3-3-3-- 
A:-3-3-3-3-3-3-3-3-3-3-3-3----------------------------------- 
E:----------------------------------------------------------- 
 
Next part(I'll take...) 
G:-------------------------------------------------------------------- 
D:-----------------------------------3-3-3-3-3-3-3-3--5-5-5-5-5-5-5-5- 
A:-3-3-3-3-3-3-3-3--5-5-5-5-5-5-5-5----------------------------------- 
E:-------------------------------------------------------------------- 
 
G:------------ 
D:------------ 
A:--0--2------ 
E:------------ 
 
Next part(She's so important...) 
G:-------------------------------------------------------------------- 
D:-----------------3-3-3-3-3-3-3-3--5-5-5-5-5-5-5-5--3-3-3-3-3-3-3-3-- 
A:-3-3-3-3-3-3-3-3---------------------------------------------------- 
E:-------------------------------------------------------------------- 
 
Next part(And now...) 
G:-------------------------------------------------------------------- 
D:-----------------3-3-3-3-3-3-3-3------------------------------------ 
A:-0-0-0-0-0-0-0-0-----------------0-0-0-0-0-0-0-0--5-5-5-5--8-8-8-8-- 
E:-------------------------------------------------------------------- 
 
Final verse:(Where are you...) 
G:----------------------------------------------------------- 
D:-5-5-5-5-5-5-5---------------3-3-3-3-3-3-3--5-5-5-5-5-5-5-- 
A:---------------5-5-5-5-5-5-5------------------------------- 
E:----------------------------------------------------------- 
 
G:-------------------------------------------------------- 
D:---------------3-3-3-3-3-3-3--3-3-3-3-3-3--5-5-5-5-5-5-- 
A:-5-5-5-5-5-5-5------------------------------------------ 
E:-------------------------------------------------------- 
 
G:------------------------ 
D:------------------------ 
A:-0-0-0-0-0-0-0-0--2--3~- 
E:------------------------ 
 
Outro: 
G:------------------------------------------------------------ 
D:-----------------3-3-3-3-3-3--5-5-5-5-5-5--3-3-3-3-3-3------ 
A:-3-3-3-3-3-3-3-3-----------------------------------------3-- 
E:------------------------------------------------------------ 
 
 
By: [email protected] 

	  

Search Paypal
auto scroll beats size up size down change color hide chords drawings
tab show chords e-chords YouTube Clip e-chords hide all tabs e-chords go to top tab