Blink 182

home > Blink 182

Always Bass Tab

Blink 182

Difficulty: IntermediateIntermediate

by paulosk8

tuner correct add songbook print version text version save to e-mail
chordsukulelecavacokeyboardtabbassdrummharmonicsflute Guitar Pro
chords

Always

Year: 2003 - Album: Blink 182 - Greatest Hits

(Blink 182)

  		INTRO 
  
G-11-11-11-11-11-11-11-11-11-11-11-11-11-11-11-11-11-11-11-11-11- 
D-9-9-9-9-9-9-9-9-9-9-9-9-9-9-11-11-11-11-11-11-11-11-11-11-11-11 
A---------------------------------------------------------------- 
E---------------------------------------------------------------- 
 
G-8-8-8-8-8-8-8-8-8-8-8-8-8-8-4-4-4-4-4-4-4-4-4-4-4-4-4-4-4-4-4-4 
D-6-6-6-6-6-6-6-6-6-6-6-6-6-6-2-2-2-2-2-2-2-2-2-2-2-2-2-2-2-2-2-2 
A---------------------------------------------------------------- 
E----------------------------------------------------------------- 
 
quando começa a canta: 
 
G-11-11-11-11-11-11-11-11-11-11-11-11-11-11-11-11-11-11-11-11-11-8-8-8-8-8-8-8-8-8-8-8-8-8 
D-9-9-9-9-9-9-9-9-9-9-9-9-9-9-9-11-11-11-11-11-11-11-11-11-11-11-6-6-6-6-6-6-6-6-6-6-6-6-6 
A----------------------------------------------------------------------------------------- 
E----------------------------------------------------------------------------------------- 
 
pré Refrão 
 
eh igual a introdução...vc faz duas vezes 
 
Refrão >>muda um poco 
 
G-11-11-11-11-11-11-15-15-15-15-15-15-15-15-15-8-8-8-8-8-8-8-8-8-4-4-4-4-4-4-4-4------- 
D-9-9-9-9-9-9-9-9-9-13-13-13-13-13-13-13-13-13-6-6-6-6-6-6-6-6-6-2-2-2-2-2-2-2-2-------- 
A--------------------------------------------------------------------------------------- 
E--------------------------------------------------------------------------------------- 
 
a música eh soh isso...eh bem fácil...escuta uma vez pra pega o tempo e jah era...flow 

	  

Search Paypal
auto scroll beats size up size down change color hide chords drawings
tab show chords e-chords YouTube Clip e-chords hide all tabs e-chords go to top tab