Blink 182

home > Blink 182

Aliens Exist Bass Tab

Blink 182

Difficulty: ExpertExpert

by meta11eir0

tuner correct add songbook print version text version save to e-mail
chordsukulelecavacokeyboardtabbassdrummharmonicsflute Guitar Pro
chords

Aliens Exist

Year: 1999 - Album: Enema of the State

(Delonge / Hoppus)

  		Blink 182 
Aliens Exist 
 
~ deixe soar 
 
Intro: 
G:-------------------------------- 
D:-------------------------------- 
A:-2-2-2-2-2-2-2-2-4-4-4-6-6-6---- 
E:-------------------------------- 
 
Verso Riff 1: 
G:----------------------------------------------------------------- 
D:----------------------------------------------------------------- 
A:-2-2-2-2-2-2-2-2------------------------------------------------- 
E:-----------------2-2-2-2-2-2-2-2-4-4-4-4-4-4-4-4-0-0-0-0-0-0-0-0- 
 
Verso Riff 2: 
G:----------------------------------------------------------------- 
D:----------------------------------------------------------------- 
A:-2-2-2-2-2-2-2-2-4-4-4-4-4-4-4-4--------------------------------- 
E:---------------------------------4-4-4-4-4-4-4-4-0-0-0-0-0-0-0-0- 
 
Pausa no Verso 
G:----------------------------------------- 
D:----------------------------------------- 
A:-2-2-2-2-2------------------------------- 
E:-----------0-0-0-0-0-4-4-4-4-4-0-0-0-0-0- 
 
Refrao Riff 1 
G:--------------------------- 
D:--------------------------- 
A:-2-2-2-2-2-2-6-7-9-9-9-9-9- 
E:--------------------------- 
 
Refrao Riff 2 
G:--------------------------------- 
D:--------------------------------- 
A:--------------------------------- 
E:-4-4-4-4-4-4-2-2-0-0-0-0-0-0-0-0- 
 
Refrao Riff 3: 
G:------*------ 
D:------*------ 
A:------*2~---- 
E:-2~-0~*------ 
 
Durante o riff da guitarra (antes da ponte) 
G:----------------------------------------------------------------- 
D:----------------------------------------------------------------- 
A:-2-2-2-2-2-2-2-2------------------------------------------------- 
E:-----------------2-2-2-2-2-2-2-2-4-4-4-4-4-4-4-4-7-7-7-7-2-2-2-2- 
 
G:----------------------------------------------------------------- 
D:----------------------------------------------------------------- 
A:----------------------------------------------------------------- 
E:-4-4-4-4-4-4-4-4-2-2-2-2-2-2-2-2-0-0-0-0-0-0-0-0-7-7-7-7-2-2-2-2- 
 
Ponte 
G:----------------------------------------------------------------- 
D:----------------------------------------------------------------- 
A:----------------------------------------------------------------- 
E:-4-4-4-4-4-4-4-4-2-2-2-2-2-2-2-2-0-0-0-0-0-0-0-0-7-7-7-7-0-0-0-0- 
 
 
ORDEM: 
 
Intro x1 
Verso Riff 1 x2 
Verso Riff 2 x1 
Verso Riff 1 x1 
Pausa x2 
Verso Riff 1 x2 
Verso Riff 2 x1 
Verso Riff 1 x1 
Refrao Riff 1 x2 
Refrao Riff 2 x2 
Refrao Riff 3 x2 
Pausa x2 
Verso Riff 1 x2 
Verso Riff 2 x1 
Verso Riff 1 x1 
Refrao Riff 1 x2 
Refrao Riff 2 x2 
Refrao Riff 3 x2 
Durante o solo x1 
Ponte x2 
Refrao Riff 1 x2 
Refrao Riff 2 x2 
Refrao Riff 3 x2 
	  

Search Paypal
auto scroll beats size up size down change color hide chords drawings
tab show chords e-chords YouTube Clip e-chords hide all tabs e-chords go to top tab