Blink 182

home > Blink 182

21 Days Bass Tab

Blink 182

Difficulty: nolevelnolevel

by Cinho+Punk+182

tuner correct add songbook print version text version save to e-mail
chordsukulelecavacokeyboardtabbassdrummharmonicsflute Guitar Pro
chords

21 Days

Year: 1994 - Album: Buddha

(Blink 182)

  		*Intro* 
G:-7-----7-----7---7---7------- 
D:---0-0---0-0---0---0---0-0-0- 
A:----------------------------- 
E:----------------------------- 
 
G:-7-----9-----11-----12---11---9---------- 
D:---0-0---0-0----0-0----0----0---0-0-0-0-0 
A:----------------------------------------- 
E:----------------------------------------- 
 
G:-7-----9-----11-----12---14--- 
D:---0-0---0-0----0-0----0----0-  
A:------------------------------  
E:------------------------------  
 
G:-12-----11-----9-----11-----12-----14-- 
D:----0-0----0-0---0-0----0-0----0-0----0  
A:---------------------------------------  
E:---------------------------------------  
 
G:-12---9---11---12-----14-----12---11---9-- 
D:----0---0----0----0-0----0-0----0----0---0 
A:------------------------------------------ 
E:------------------------------------------ 
 
*Pre-Verse 1* 
G:--------------------------------------------------------------------- 
D:--------------------------------------------------------------------- 
A:-5-5-5-5-5-5-5-5-5-5-5-5-5-5-5-5--0-0-0-0-0-0-0-0--2-2-2-2--/-------- 
E:-----------------------------------------------------------/--3-3-3-3 
 
*Verse 1* 
G:------------------------------------------------------------------ 
D:--------------------------7-7-7-7--5--5-5--5--5--5-5-5-5-/-4-4-4-4 
A:-5-5-5-5-5-5-5-5-5-5-5-5------------------------------------------ 
E:------------------------------------------------------------------ 
 
*Pre-Verse 2* 
G:-------------------------------------------------------------------- 
D:----------------------------------7-7-7-7-7-7-7-7--9-9-9-9-/-5-5-5-5 
A:-5-5-5-5-5-5-5-5-5-5-5-5-5-5-5-5------------------------------------ 
E:-------------------------------------------------------------------- 
 
*Verse 2* 
G:-------------------------------------------------------------------------- 
D:------------------5----5----5----5----5----------------------------------- 
A:-7-7-7-7-7-7-7-7-------------------------5-5-5-5-5-5-5-5-5-5-5-5-5-5-5-5-- 
E:-------------------------------------------------------------------------7 
 
*Interlude* 
G:-------------------------------------------------------------------- 
D:-------------------------------------------------------------------- 
A:-5-5-5-5-5-5-5-5-5-5-5-5-5-5-5-5------------------------------------ 
E:----------------------------------5-5-5-5-5-5-5-5--7-7-7-7-/-3-3-3-3 
 
*Ending* 
G:-------------------------------------------------------------------------------------------------- 
D:-------------------------------------------------------------------------------------------------- 
A:----------------------------------5-5-5-5-5-5-5-5-5-5-5-5-5-5-5-5--------------------------------- 
E:-3-3-3-3-3-3-3-3-3-3-3-3-3-3-3-3-----------------------------------5-5-5-5-5-5-5-5-5-5-5-5-5-5-5-5 
 
G:--------------------------------- 
D:--------------------------------- 
A:------------------3-3-3-3-3-3-3-3 
E:-7-7-7-7-7-7-7-7----------------- 
 
by: [email protected] 
 

	  

Search Paypal
auto scroll beats size up size down change color hide chords drawings
tab show chords e-chords YouTube Clip e-chords hide all tabs e-chords go to top tab