Blancmange

Waves

Blancmange

bass

by  ALYSLIMA

save to print version add songbook text version e-mail correct tuner
chordsukulelecavacokeyboardtabbassdrumsharmonicaflute Guitar Pro
close

there isn't a video lesson for this song

chords

Waves

Key:  E More
Waves Key BB
Waves Key CC
Waves Key C#C#
Waves Key DD(one step down)
Waves Key D#D#(half step down)
Waves Key EE(original key)
Waves Key FF(half step up)
Waves Key F#F#(one step up)
Waves Key GG
Waves Key G#G#
Waves Key AA
Waves Key A#A#
	  		
Intro:  

G|--------------------------------------------------------------------------| 
D|--------------------------------------------------------------------------| 
A|--------------------------------------------------------------------------| 
E|--7-7-7-7-7-7-7-7-(x8)--0-0-0-0-0-0-0-0-(x2)--4-4-4-4-4-4-4-4-(x2)--------| 

G|--------------------------------------------------------------------------| 
D|--------------------------------------------------------------------------| 
A|--------------------------------------------------------------------------| 
E|--5-5-5-5-5-5-5-5-(x2)--0-0-0-0-0-0-0-0-(x2)------------------------------| 

Verse: (Play Twice) 

G|--------------------------------------------------------------------------| 
D|--------------------------------------------------------------------------| 
A|--------------------------------------------------------------------------| 
E|--0-0-0-0-0-0-0-0-(x2)--4-4-4-4-4-4-4-4-(x2)--5-5-5-5-5-5-5-5-(x2)--------| 

G|--------------------------------------------------------------------------| 
D|--------------------------------------------------------------------------| 
A|--------------------------------------------------------------------------| 
E|--0-0-0-0-0-0-0-0-(x2)----------------------------------------------------| 

Instrumental: (Play Once) 

G|--------------------------------------------------------------------------| 
D|--------------------------------------------------------------------------| 
A|--------------------------------------------------------------------------| 
E|--0-0-0-0-0-0-0-0-(x2)--4-4-4-4-4-4-4-4-(x2)--5-5-5-5-5-5-5-5-(x2)--------| 

G|--------------------------------------------------------------------------| 
D|--------------------------------------------------------------------------| 
A|--------------------------------------------------------------------------| 
E|--0-0-0-0-0-0-0-0-(x2)----------------------------------------------------| 

Repeat Verse: 

Chorus: 

G|--------------------------------------------------------------------------| 
D|--------------------------------------------------------------------------| 
A|--------------------------------------------------------------------------| 
E|--0-0-0-0-0-0-0-0-(x2)--4-4-4-4-4-4-4-4-(x2)--5-5-5-5-5-5-5-5-(x2)--------| 

G|--------------------------------------------------------------------------| 
D|--------------------------------------------------------------------------| 
A|--------------------------------------------------------------------------| 
E|--0-0-0-0-0-0-0-0-(x2)----------------------------------------------------| 

G|--------------------------------------------------------------------------| 
D|--------------------------------------------------------------------------| 
A|--------------------------------------------------------------------------| 
E|--0-0-0-0-0-0-0-0-(x2)--4-4-4-4-4-4-4-4-(x2)--5-5-5-5-5-5-5-5-(x2)--------| 

G|--------------------------------------------------------------------------| 
D|--------------------------------------------------------------------------| 
A|--------------------------------------------------------------------------| 
E|--7-7-7-7-7-7-7-7-(x8)----------------------------------------------------| 

Repeat Instrumental: 

Repeat Verse: (Play Once) 

Repeat Instrumental: (Play Twice) 

Bass Stops: (4:05) 
		  

See also:

bass Deep Purple - Smoke On The Waterr bass Deep Purple - Knocking At Your Back Door bass Deep Purple - Space Truckin' bass Deep Purple - Burn Ver.(2) bass Deep Purple - Black Night bass Deep Purple - Ted The Mechanic
e-chords

Other versions:

bass Blancmange - Waves
auto scroll beats size up size down change color hide chords drawings
tab show chords e-chords YouTube Clip e-chords hide all tabs e-chords go to top tab

share