Blancmange

Cruel

Blancmange

bass

by  TARIKIKE

save to print version add songbook text version e-mail correct tuner
chordsukulelecavacokeyboardtabbassdrumsharmonicaflute Guitar Pro
close

there isn't a video lesson for this song

chords

Cruel

Key:  B More
Cruel Key F#F#
Cruel Key GG
Cruel Key G#G#
Cruel Key AA(one step down)
Cruel Key A#A#(half step down)
Cruel Key BB(original key)
Cruel Key CC(half step up)
Cruel Key C#C#(one step up)
Cruel Key DD
Cruel Key D#D#
Cruel Key EE
Cruel Key FF
	  		

Intro: (Play 2 Times)     

G|--------------------------------------------------------------------------| 
D|--------5--7--------------------------------------------------------------| 
A|-----7------------7--5--7-------------------------------------------------| 
E|--5------------5----------------------------------------------------------| 
B|--------------------------------------------------------------------------| 

Verse: (Play 2 Times) 

G|--------------------------------------------------------------------------| 
D|--------5--7--------------------------------------------------------------| 
A|-----7------------7--5--7-------------------------------------------------| 
E|--5------------5----------------------------------------------------------| 
B|--------------------------------------------------------------------------| 

Chorus: 

G|--------------------------------------------------------------------------| 
D|--------------------------------------------------------------------------| 
A|-------1--3---------------------------------------------------------------| 
E|--3-----------3--0--------------------------------------------------------| 
B|--------------------1-----------------------------------------------------| 

Repeat Intro: 

Repeat Verse: 

Chorus: 

G|--------------------------------------------------------------------------| 
D|--------------------------------------------------------------------------| 
A|-------1--1/--3---3/---10--7----------------------------------------------| 
E|--3---------------------------8-------------------------------------------| 
B|--------------------------------------------------------------------------| 

Repeat Intro: (Play Once) 

Bass Stops: (2:25 - 2:33) 

Repeat Verse: 

Chorus: 

G|--------------------------------------------------------------------------| 
D|--------------------------------------------------------------------------| 
A|-------1--1/--3-----------------------------------------------------------| 
E|--3---------------3--0----------------------------------------------------| 
B|------------------------1-------------------------------------------------| 

Ending: (Play 22 Times) (Fades Out) 

G|--------------------------------------------------------------------------| 
D|--------5--7--------------------------------------------------------------| 
A|-----7--------------------------------------------------------------------| 
E|--5-----------------------------------------------------------------------| 
B|--------------------------------------------------------------------------| 
		  

See also:

bass Deep Purple - Smoke On The Waterr bass Deep Purple - Knocking At Your Back Door bass Deep Purple - Space Truckin' bass Deep Purple - Burn Ver.(2) bass Deep Purple - Black Night bass Deep Purple - Ted The Mechanic
e-chords

Other versions:

bass Blancmange - Cruel bass Flogging Molly - Cruel Mistress
auto scroll beats size up size down change color hide chords drawings
tab show chords e-chords YouTube Clip e-chords hide all tabs e-chords go to top tab

share