Black Sabbath

home > Black Sabbath

Paranoid (intro) Bass Tab

Black Sabbath

Difficulty: AdvancedAdvanced

by Ney+Simmons

tuner correct add songbook print version text version save to e-mail
chordsukulelecavacokeyboardtabbassdrumsharmonicsflute Guitar Pro
chords

Paranoid (intro)

	  intro.: 
 -----5-5-5---5-7--------------------------------------------------- 
 -------------5-7-5-7------------------------------------------- 
 ------------------------------------------------------- 
 ------------------------------------------------------- 
quado o Ozzy canta obaixo fica assim: 
 ---10-10-10-10-10-10-10-10-10-10-6-6-6-6-8-8-10----------------------------------------------------- 
 ------------------------------------------------------- 
 ------------------------------------------------------- 
 ------------------------------------------------------- 
base: 
 -----10---6-8-10-------------------------------------------------- 
 ------------------------------------------------------- 
 ------------------------------------------------------- 
 ------------------------------------------------------- 
final: 
 --------8-8-10----------------------------------------------- 
 ------------------------------------------------------- 
 ------------------------------------------------------- 
 ------------------------------------------------------- 
 
   obrigado... 

	  

there isn't a video lesson for this song

request
Search Paypal
auto scroll beats size up size down change color hide chords drawings
tab show chords e-chords YouTube Clip e-chords hide all tabs e-chords go to top tab