Bide ou Balde

home > Bide ou Balde

Melissa Bass Tab

Bide ou Balde

Difficulty: nolevelnolevel

by franklinjr

tuner correct add songbook print version text version save to e-mail
chordsukulelecavacokeyboardtabbassdrumsharmonicsflute Guitar Pro
chords

Melissa

Key:  D More
Melissa Key AA
Melissa Key A#A#
Melissa Key BB
Melissa Key CC(one step down)
Melissa Key C#C#(half step down)
Melissa Key DD(original key)
Melissa Key D#D#(half step up)
Melissa Key EE(one step up)
Melissa Key FF
Melissa Key F#F#
Melissa Key GG
Melissa Key G#G#
  		A base da música é isso 
 
G|----------------------------------------| 
D|----------------------------------------| 
A|-5-5-554-----------------------454------| 
E|----------33333-00000--3555-35----------| 
 
O solo é isso 
 
G|---------------4------------------------| 
D|-----------5-7---7----------------------| 
A|-55555-777-----------------3-5----------| 
E|---------------------33333-----55555----| 

	  

Search Paypal
auto scroll beats size up size down change color hide chords drawings
tab show chords e-chords YouTube Clip e-chords hide all tabs e-chords go to top tab