Beastie Boys

Intergalactic

Beastie Boys

bass

save to print version add songbook text version e-mail correct tuner
chordsukulelecavacokeyboardtabbassdrumsharmonicaflute Guitar Pro
close

there isn't a video lesson for this song

chords

Intergalactic

Year: 1998 - Album: Solid Gold Hits

	  		

G|-3-3-3-3-3--3-3-3-3---3-3-3-3---------1-2-2------------|
D|--------------------------------1-1--------------------|
A|-------------------------------------------------------|
E|-------------------------------------------------------|

G|-3-3-3-3-3--3-3-3-3---3-3-3-3---------1-2-2------------|
D|--------------------------------1-1--------------------|
A|-------------------------------------------------------|
E|-------------------------------------------------------|

G|-3-3-3-3-3--3-3-3-3---3-3-3-3---------1-2-2------------|
D|--------------------------------1-1--------------------|
A|-------------------------------------------------------|
E|-------------------------------------------------------|

		  

See also:

bass Juvenile - Back That Ass Up bass Eminem - Guilty Consience bass Nelly - Dilemma bass Nelly - Dem Boyz bass Eminem - Hailies Song bass Eminem - Lose Urself
e-chords

Other versions:

bass Beastie Boys - Intergalactic
auto scroll beats size up size down change color hide chords drawings
tab show chords e-chords YouTube Clip e-chords hide all tabs e-chords go to top tab

share