Barão Vermelho

home > Barão Vermelho

Eclipse Oculto Bass Tab

Barão Vermelho

Difficulty: nolevelnolevel

by alyslima

tuner correct add songbook print version text version save to e-mail
chordsukulelecavacokeyboardtabbassdrumsharmonicsflute Guitar Pro
chords

Eclipse Oculto

(Caetano Veloso)

  		Introdução: (4x)

5-----------------------------------------------------------------------------------
4--0-6-4-0-5-5-5-7---0--------------------------------------------------------------
3------------------4----------------------------------------------------------------
2-----------------------------------------------------------------------------------
1-----------------------------------------------------------------------------------

Voz: (2x)

5------------------------------------------------------------------------------------
4--0-6-4-0-5-5-5-7----0----0-6-4-0-5-5-5-7----0--------------------------------------
3-------------------4-----------------------4----------------------------------------
2------------------------------------------------------------------------------------
1------------------------------------------------------------------------------------

5------------------------------------------------------------------------------------
4--0-6-4-7-7-7-7---------------------------------------------------------------------
3---------------------9-9-9-9-10-10-10-10-9-9-8-8------------------------------------
2------------------------------------------------------------------------------------
1------------------------------------------------------------------------------------

Refrão:

5-----------------------------------------------------------------------------------
4—0-6-0-5-5-5-7-----0---------------------------------------------------------------
3----------------4------------------------------------------------------------------   (4x)
2-----------------------------------------------------------------------------------
1-----------------------------------------------------------------------------------

5-------------------------------------------------------------------------------------
4—0-6-0-5-5-5-5-5-5-5-5-2-2-1-1-0-6-4-0-5-5-5-7-----0---------------------------------
3------------------------------------------------4------------------------------------
2-------------------------------------------------------------------------------------
1------------------------------------------------------------------------------------- 
	  

Search Paypal
auto scroll beats size up size down change color hide chords drawings
tab show chords e-chords YouTube Clip e-chords hide all tabs e-chords go to top tab