Bad Suns

home > Bad Suns

Patience Bass Tab

Bad Suns

Difficulty: nolevelnolevel

by deivcavalcanti

tuner correct add songbook print version text version save to e-mail
chordsukulelecavacokeyboardtabbassdrumsharmonicsflute Guitar Pro
chords

Patience

  		
Intro Bass starts at 0:11 
G|-----------------------------------------------------------------------| 
D|-----------------------------------------------------------------------| 
A|-----------------------------------------------------------------------| 
D|--3-3-3-3-3-3-3-3-3-3-3-3-3-3-3-3/7-7-7-7-7-7-7-7-10-10-7-7-10-10-7-7--| 

G|-----------------------------------------------------------------------| 
D|-----------------------------------------------------------------------| 
A|-----------------------------------------------------------------------| 
D|--10/-0---0-0-0---0-0-0---0-0-0---0-10/-0---0-0-0---0-0-0---0-0-0---0--| 

Verse 
G|-------------------------------------------------------------------| 
D|--3-3-3-3-3-3-3-3-3-3-3-3-3-3-3-3-2-2-2-2-2-2-2-2-2-2-2-2-2-2-2-2--| 
A|-------------------------------------------------------------------| 
D|-------------------------------------------------------------------| 

G|-------------------------------------------------------------------| 
D|-------------------------------------------------------------------| 
A|-------------------------------------------------------------------| 
D|--0-0-0-0-0-0-0-0-0-0-0-0-0-0-0-0-0-0-0-0-0-0-0-0-0-0-0-0-0-0-0-0--| 

Pre-Chorus 
G|--------------------------------3-|-----------------------------------| 
D|----------------------------3-5---|-----------------------------------| 
A|--3-3-3-3-3-3-3-3-3-3-3-3-3-------|-3-3-3-3-3-3-3-3-3-3-3-3-3---------| 
D|----------------------------------|---------------------------3/15\3--| 

Chorus 
G|-------------------------------------------------------------------------------| 
D|-------------------------------------------------------------------------------| 
A|-------------------------------------------------------------------------------| 
D|--3-3---3-3-3---3-3-3---3-3-3---3-3-3---7-7-7---7-7-7---7-10-10-7-7-10-10-7-7--| 

G|--------------------------------------------------| 
D|--------------------------------------------------| 
A|--------------------------------------------------| 
D|--10/-0---0-0-0---0-0-0---0-0-0-0-0-0-------------| 

Post-Chorus 
G|-----------------------------------------------------------------------| 
D|-----------------------------------------------------------------------| 
A|-----------------------------------------------------------------------| 
D|--3-3-3-3-3-3-3-3-3-3-3-3-3-3-3-3/7-7-7-7-7-7-7-7-10-10-7-7-10-10-7-7--| 

G|-----------------------------------------------------------------------| 
D|-----------------------------------------------------------------------| 
A|-----------------------------------------------------------------------| 
D|--10/-0---0-0-0---0-0-0---0-0-0---0-10/-0---0-0-0---0-0-0---0-0-0---0--| 

Verse 
G|-------------------------------------------------------------------| 
D|--3-3-3-3-3-3-3-3-3-3-3-3-3-3-3-3-2-2-2-2-2-2-2-2-2-2-2-2-2-2-2-2--| 
A|-------------------------------------------------------------------| 
D|-------------------------------------------------------------------| 

G|-------------------------------------------------------------------| 
D|-------------------------------------------------------------------| 
A|-------------------------------------------------------------------| 
D|--0-0-0-0-0-0-0-0-0-0-0-0-0-0-0-0-0-0-0-0-0-0-0-0-0-0-0-0-0-0-0-0--| 

G|----------------------------------5-5-5-5-5-5-5-5-5-5-5-5-5-5-5-5--| 
D|--3-3-3-3-3-3-3-3-3-3-3-3-3-3-3-3----------------------------------| 
A|-------------------------------------------------------------------| 
D|-------------------------------------------------------------------| 

G|-------------------------------------------------------------------| 
D|-------------------------------------------------------------------| 
A|-------------------------------------------------------------------| 
D|--0-0-0-0-0-0-0-0-0-0-0-0-0-0-0-0-0-0-0-0-0-0-0-0-0-0-0-0-0-0-0-0--| 

Pre-Chorus 
G|--------------------------------3-|----------------------------------| 
D|----------------------------3-5---|----------------------------------| 
A|--3-3-3-3-3-3-3-3-3-3-3-3-3-------|----------------------------------| x2 
D|----------------------------------|-3-3-3-3-3-3-3-3-3-3-3-3-3-3-3-3--| 

Chorus 
G|-------------------------------------------------------------------------------| 
D|-------------------------------------------------------------------------------| 
A|-------------------------------------------------------------------------------| 
D|--3-3---3-3-3---3-3-3---3-3-3---3-3-3---7-7-7---7-7-7---7-10-10-7-7-10-10-7-7--| 

G|-------------------------------------------------------------------| 
D|-------------------------------------------------------------------| 
A|-------------------------------------------------------------------| 
D|--10/-0---0-0-0---0-0-0---0-0-0---0-10/-0---0-0-0---0-0-0---0-0-0--| 

G|---------------------------------------------------------------------------------| 
D|---------------------------------------------------------------------------------| 
A|---------------------------------------------------------------------------------| 
D|--3-3-3---3-3-3---3-3-3---3-3-3---3-3-3---7-7-7---7-7-7---7-10-10-7-7-10-10-7-7--| 

G|-------------------------------------------------------------------| 
D|-------------------------------------------------------------------| 
A|-------------------------------------------------------------------| 
D|--10/-0---0-0-0---0-0-0---0-0-0---0-10/-0---0-0-0---0-0-0---0-0-0--| 

Post-Chorus 
G|---------------------------------------------------------------------------------| 
D|---------------------------------------------------------------------------------| 
A|---------------------------------------------------------------------------------| 
D|--3-3-3---3-3-3---3-3-3---3-3-3---3-3-3---7-7-7---7-7-7---7-10-10-7-7-10-10-7-7--| 

G|-------------------------------------------------------------------| 
D|-------------------------------------------------------------------| 
A|-------------------------------------------------------------------| 
D|--10/-0---0-0-0---0-0-0---0-0-0---0-10/-0---0-0-0---0-0-0---0-0-0--| 

Bridge 
G|-------------------------------------------------------------------| 
D|--3-3-3-3-3-3-3-3-3-3-3-3-3-3-3-3-2-2-2-2-2-2-2-2-2-2-2-2-2-2-2-2--| 
A|-------------------------------------------------------------------| 
D|-------------------------------------------------------------------| 

G|-------------------------------------------------------------------| 
D|--0-0-0-0-0-0-0-0-0-0-0-0-0-0-0-0-0-0-0-0-0-0-0-0-0-0-0-0-0-0-0-0--| 
A|-------------------------------------------------------------------| 
D|-------------------------------------------------------------------| 

G|----------------------------------5-5-5-5-5-5-5-5-5-5-5-5-12-12-12-12--| 
D|--3-3-3-3-3-3-3-3-3-3-3-3-3-3-3-3--------------------------------------| 
A|-----------------------------------------------------------------------| 
D|-----------------------------------------------------------------------| 

G|-----------------------12----12--------------------| 
D|--12-12-12-12-12-12-12----12----12-10-12-12-12-12--| 
A|---------------------------------------------------| x2 
D|---------------------------------------------------| 

Bridge 2 
G|--2-2-2-2-2-2-2-2-2-2-2-2-2-2-2-2-4-4-4-4-4-4-4-4-4-4-4-4-4--------| 
D|------------------------------------------------------------2-2-2--| 
A|-------------------------------------------------------------------| 
D|-------------------------------------------------------------------| 

G|---------------------------------|------------------------------------------| 
D|----------------------------3-5/-|-10-10-10-10-10-10-10-10-10-10-10-10-10\--| 
A|--3-3-3-3-3-3-3-3-3-3-3-3-3------|------------------------------------------| 
D|---------------------------------|------------------------------------------| 

Chorus 
G|-------------------------------------------------------------------------------| 
D|-------------------------------------------------------------------------------| 
A|-------------------------------------------------------------------------------| 
D|--3-3---3-3-3---3-3-3---3-3-3---3-3-3---7-7-7---7-7-7---7-10-10-7-7-10-10-7-7--| 

G|-------------------------------------------------------------------| 
D|-------------------------------------------------------------------| 
A|-------------------------------------------------------------------| 
D|--10/-0---0-0-0---0-0-0---0-0-0---0-10/-0---0-0-0---0-0-0---0-0-0--| 

G|---------------------------------------------------------------------------------| 
D|---------------------------------------------------------------------------------| 
A|---------------------------------------------------------------------------------| 
D|--3-3-3---3-3-3---3-3-3---3-3-3---3-3-3---7-7-7---7-7-7---7-10-10-7-7-10-10-7-7--| 

G|-----------------------------------------------------------------------| 
D|-----------------------------------------------------------------------| 
A|-----------------------------------------------------------------------| 
D|--10/-0---0-0-0---0-0-0---0-0-0---0-10/-0---0-0-0---0-0-0---0-0-0---0--| 

Outro 
G|-----------------------------------------------------------------------| 
D|-----------------------------------------------------------------------| 
A|-----------------------------------------------------------------------| 
D|--3-3-3-3-3-3-3-3-3-3-3-3-3-3-3-3/7-7-7-7-7-7-7-7-10-10-7-7-10-10-7-7--| 

G|-----------------------------------------------------------------------| 
D|-----------------------------------------------------------------------| 
A|-----------------------------------------------------------------------| 
D|--10/-0---0-0-0---0-0-0---0-0-0---0-10/-0---0-0-0---0-0-0---0-0-0---3--| 

G|-----------------------------------------------------------------------| 
D|-----------------------------------------------------------------------| 
A|-----------------------------------------------------------------------| 
D|--3-3-3-3-3-3-3-3-3-3-3-3-3-3-3-3/7-7-7-7-7-7-7-7-10-10-7-7-10-10-7-7--| 

G|-----------------------------------------------------------------------| 
D|-----------------------------------------------------------------------| 
A|-----------------------------------------------------------------------| 
D|--10/-0---0-0-0---0-0-0---0-0-0---0-10/-0---0-0-0---0-0-0---0-0-0---0--| 


************************************ 

/ - Slide up 
\ - Slide down 

************************************ 
	  

Search Paypal
auto scroll beats size up size down change color hide chords drawings
tab show chords e-chords YouTube Clip e-chords hide all tabs e-chords go to top tab