Bad Religion

home > Bad Religion

Epiphany Bass Tab

Bad Religion

Difficulty: nolevelnolevel

tuner correct add songbook print version text version save to e-mail
chordsukulelecavacokeyboardtabbassdrummharmonicsflute Guitar Pro
chords

Epiphany

Year: 2002 - Album: The Process of Belief

  		

 
Album: The Process Of Belief
Title: 
Bassist: Jay Bently
Tabbed by: Hampster Wheel ([email protected])

Ok, I'm tired of seeing crap versions of this song that are, in no way, correct, getting 5 stars.
Seriously, play this over and over if you don't think it sounds right, until it does, because it is.
The only part that may be wrong is the prechorus pt. 2.  Other than that, it's all good.

Verse
G--10---10-10-10--------12-----7---7-7-7-6-6-6-6-/- ===|
D---0----0--0--0--7-7-7-10-(7)-8---8-8-8-7-7-7-7---    4x
A-----------------7-7-7----(7)---------------------    |
E-------------------------------------------------- ===|

G--10-10-10-------12-----7-7-7-6-6-6-6-/-10-10-10-------12-----7-7-7--
D---0--0--0-7-7-7-10-(7)-8-8-8-7-7-7-7----0--0--0-7-7-7-10-(7)-8-8-8--
A-----------7-7-7----(7)--------------------------7-7-7----(7)--------
E---------------------------------------------------------------------

G-----------------------------------------------------------------
D-7----7-5----5-3-----3-2-----------------------------------------
A--------------------------0--------------------------------------
E-----------------------------------------------------------------

Prechorus pt. 1
G-----------------------------------------------
D-----------------------------------------------
A-----------------------------------------------
E-6-6-6-6-6-6-6-5-5-5-5-5-5-5-5-6-6-6-6-6-6-6-6-

Prechorus pt. 2
G------------------------------------------------------------------------------
D------------------------------------------------------------------------------
A------------------------------------------------------------------------------
E-5---5-6-5---5-6-8---8-9-10---10-11-10---10-11-13---13-14-15---15-15-/-17-\-3-

Chorus
G-------------------------------------------------------------------------------------------------
D-------------------------------------------------------------------------------------------------
A-5-5-5-5-5-5-----------------8-8---------8-8-7-7-5-5-5-5-5-5-----------------8-8---------8-8-7-7-
E-------------5-5-6-6-6-6-6-6-----8-8-8-8---------------------5-5-6-6-6-6-6-6-----8-8-8-8---------

G-------------------
D-------------------
A-8-------------\-0-
E-------------------

Bridge
G-----------------------------------------------------------------
D-----------------------------------------------------------------
A-5-5-5-5---------3-3-3-3-1-1-1-1-5-5-5-5---------3-3-3-3-1---0---
E---------1-1-1-1-------------------------1-1-1-1-----------------

Repeat verse
Repeat prechorus
Repeat chorus
Repeat bridge (2x, changing last notes to -1-1-1-1- instead of 1---0---)

Interlude
G----------------------------------------------------------------
D---------7-5----------------------------------------------------
A-0-0-0-0-----7-5---------3-3-3-3--------------------------------  2x
E-----------------1-1-1-1---------3-3-3-3-3-3-3-3----------------

G-|---------|---------|---------|------------------------------------------
D-|-------7-|-7-5-----|---------|---------7-7-/7---7-7-7-5-5-3-2-----------
A-|-0-0-0---|-----7-5-|-5-------|-5-----3--------0---------------0-0-0-0-0-
E-|---------|---------|---1-3-5-|---3-5------------------------------------

Guitar Solo
G-----------------------------------------------------------------
D-----------------------------------------------------------------
A-5-5-5-5---------3-3-3-3-3-3-3-3-5-5-5-5--------3-3-3-3-3~-------
E---------5-5-5-5-------------------------5-5-5-5-----------------

Repeat prechorus pt. 2
Repeat Chorus
Repeat bridge until end of song


RATE this tab and COMMENT on it.

	  

Search Paypal
auto scroll beats size up size down change color hide chords drawings
tab show chords e-chords YouTube Clip e-chords hide all tabs e-chords go to top tab