Avril Lavigne

home > Avril Lavigne

Complicated Bass Tab

Avril Lavigne

Difficulty: BeginnerBeginner

tuner correct add songbook print version text version save to e-mail
chordsukulelecavacokeyboardtabbassdrummharmonicsflute Guitar Pro
chords

Complicated

Year: 2002 - Album: Let Go

  		a musica comeca so com as guitarras depois quando ela
comeca a cantar, entra o baixo.

primeira parte

---------------------------------------------------
---------3-----------------------------------------
-----------------5---------1----------3------------
---------------------------------------------------


segunda parte
---------------------------------------------------
---------------------------------------------------
------1---------3----------------------------------
--------------------------------------------------- 

terceira parte (refrao)

----------------------------------------------------
----------------------------------------------------
----5-5-5-----1-1-1--------3-3-3--3-3-3-3-----------
------------------------------------------------



Ordem

primeira parte (2 vezes)
segunda parte (2 vezes)
terceira parte (4 vezes)
primeira parte (2 vezes)
segunda parte (2 vezes)
terceira parte (4 vezes)
primeira parte (2 vezes)
segunda parte (2 vezes)
terceira parte (8 vezes)
	  

Search Paypal
auto scroll beats size up size down change color hide chords drawings
tab show chords e-chords YouTube Clip e-chords hide all tabs e-chords go to top tab