Audioslave

home > Audioslave

Doesn't Remind Me Bass Tab

Audioslave

Difficulty: ExpertExpert

by josevtz

tuner correct add songbook print version text version save to e-mail
chordsukulelecavacokeyboardtabbassdrumsharmonicsflute Guitar Pro
chords

Doesn't Remind Me

	  Verse 
G------------------------------------------------------------------------------------- 
D-------------------------------7--7-------------------------------------------------- 
A---------5-7-7-5-7------5-------77--------5-7-7-5-7-------5-0-0---------------------- 
E-5-5h7--------------5-7-------------5-5h7-------------5-7---------3-0-0-0-0?--------- 
 
Chorus part 1 
G---------------------------------------- 
D---------------------------------------- 
A-7-7-7-7-5-5-5-5-0-0-------------------- 
E---------------------3-0-0-0-0---------- 
 
Chorus part 2 
G------------------------------------------------------------------------------- 
D------------------------------------------------------------------------------- 
A-7-7-7-7-5-5-5-5-0-0------------------7-7-7-7-5-5-5-5-0------------------------ 
E----------------------------3-0-0-0-0---------------------------------------?-- 
 
 

	  

there isn't a video lesson for this song

request
Search
auto scroll beats size up size down change color hide chords drawings
tab show chords e-chords YouTube Clip e-chords hide all tabs e-chords go to top tab