Antiseen

Guts

Antiseen

bass

by  VSWORLD

save to print version add songbook text version e-mail correct tuner
chordsukulelecavacokeyboardtabbassdrumsharmonicaflute Guitar Pro
close

there isn't a video lesson for this song

chords

Guts

	  		
Intro 
G|----------------------------|----------------------------| 
D|----------------------------|----------------------------| 
A|----------------------------|----------------------------| 
E|----------------------------|----------------------------| 

G|----------------------------|----------------------------| 
D|----------------------------|----------------------------| 
A|-5-------------5------------|-5-------------5------------| 
E|---5--7-7-7-7----5--7-7-7-7-|---5--7-7-7-7----5--7-7-7-7-| 

Verse 
G|----------------------------------|----------------------------| 
D|----------------------------------|----------------------------| 
A|-7-7-7-7-7-7-7-7--7-7-7-7-7-7-7-7-|-5-------------5------------| 
E|----------------------------------|---5--7-7-7-7----5--7-7-7-7-| 

G|----------------------------------|----------------------------| 
D|----------------------------------|----------------------------| 
A|-7-7-7-7-7-7-7-7--7-7-7-7-7-7-7-7-|-5-------------5------------| 
E|----------------------------------|---5--7-7-7-7----5--7-7-7-7-| 

G|----------------------------------|----------------------------| 
D|----------------------------------|----------------------------| 
A|-7-7-7-7-7-7-7-7--7-7-7-7-7-7-7-7-|-5-------------5------------| 
E|----------------------------------|---5--7-7-7-7----5--7-7-7-7-| 

G|----------------------------------|----------------------------| 
D|----------------------------------|----------------------------| 
A|-7-7-7-7-7-7-7-7--7-7-7-7-7-7-7-7-|-5-------------5------------| 
E|----------------------------------|---5--7-7-7-7----5--7-7-7-7-| 

Chours 
        ("Hey...       Hey...        Hey...        Hey!") 
G|---------------------------|---------------------------| 
D|---------------------------|---------------------------| 
A|---5----------5------------|---5----------5------------| 
E|-5---5-5-5-5----5--7-7-7-7-|-5---5-5-5-5----5--7-7-7-7-| 

("You Will Never Be Like Us, Cuz You Ain't Got The Guts") 
G|---------------------------|---------------------------| 
D|---------------------------|---------------------------| 
A|---5----------5------------|---5----------5------------| 
E|-5---5-5-5-5----5--7-7-7-7-|-5---5-5-5-5----5--7-7-7-7-| 

Intro 
G|----------------------------|----------------------------| 
D|----------------------------|----------------------------| 
A|-5-------------5------------|-5-------------5------------| 
E|---5--7-7-7-7----5--7-7-7-7-|---5--7-7-7-7----5--7-7-7-7-| 

Verse 
G|----------------------------------|----------------------------| 
D|----------------------------------|----------------------------| 
A|-7-7-7-7-7-7-7-7--7-7-7-7-7-7-7-7-|-5-------------5------------| 
E|----------------------------------|---5--7-7-7-7----5--7-7-7-7-| 

G|----------------------------------|----------------------------| 
D|----------------------------------|----------------------------| 
A|-7-7-7-7-7-7-7-7--7-7-7-7-7-7-7-7-|-5-------------5------------| 
E|----------------------------------|---5--7-7-7-7----5--7-7-7-7-| 

G|----------------------------------|----------------------------| 
D|----------------------------------|----------------------------| 
A|-7-7-7-7-7-7-7-7--7-7-7-7-7-7-7-7-|-5-------------5------------| 
E|----------------------------------|---5--7-7-7-7----5--7-7-7-7-| 

G|----------------------------------|----------------------------| 
D|----------------------------------|----------------------------| 
A|-7-7-7-7-7-7-7-7--7-7-7-7-7-7-7-7-|-5-------------5------------| 
E|----------------------------------|---5--7-7-7-7----5--7-7-7-7-| 

Chours 
        ("Hey...       Hey...        Hey...        Hey!") 
G|---------------------------|---------------------------| 
D|---------------------------|---------------------------| 
A|---5----------5------------|---5----------5------------| 
E|-5---5-5-5-5----5--7-7-7-7-|-5---5-5-5-5----5--7-7-7-7-| 

("You Will Never Be Like Us, Cuz You Ain't Got The Guts") 
G|---------------------------|---------------------------| 
D|---------------------------|---------------------------| 
A|---5----------5------------|---5----------5------------| 
E|-5---5-5-5-5----5--7-7-7-7-|-5---5-5-5-5----5--7-7-7-7-| 

Outro 
         ("Hey...       Hey...         Hey!")         
G|----------------------------|----------------------------| 
D|----------------------------|----------------------------| 
A|-5-------------5------------|-5-------------5------------| 
E|---5--7-7-7-7----5--7-7-7-7-|---5--7-7-7-7----5--7-------| 
		  

See also:

bass Deep Purple - Burn Ver.(2) bass Deep Purple - Speed King bass Deep Purple - Into The Fire bass Deep Purple - Black Night bass Deep Purple - Lady Double Dealer bass Deep Purple - Smoke On The Water
e-chords

Other versions:

bass Antiseen - Guts
auto scroll beats size up size down change color hide chords drawings
tab show chords e-chords YouTube Clip e-chords hide all tabs e-chords go to top tab

share