Alpha Blondy

home > Alpha Blondy

Come Back Jesus Bass Tab

Alpha Blondy

Difficulty: ExpertExpert

by MarceloBongoMan

tuner correct add songbook print version text version save to e-mail
chordsukulelecavacokeyboardtabbassdrumsharmonicsflute Guitar Pro
chords

Come Back Jesus

Year: 1987 - Album: Live Au Zenith

  		Partition transcrite par Tonton 
 
 
album : Revolution  
 
G|--------------------------|--------------------------|  
D|--------------------------|--------------------------|  
A|-1-1-1--------------------|-1-1-1--------------------|  
E|--------------1-4-4-1---1-|----------------------4-4-|  
 
G|--------------------------|------------------1-3-----|  
D|--------------------------|----------------------1-3-|  
A|-1-1-1--------------------|-1-1-1--------------------|  
E|--------------1-4-4-1---1-|--------------------------|  

	  

Search Paypal
auto scroll beats size up size down change color hide chords drawings
tab show chords e-chords YouTube Clip e-chords hide all tabs e-chords go to top tab