Alpha Blondy

home > Alpha Blondy

Brigadier Sabari Bass Tab

Alpha Blondy

Difficulty: ExpertExpert

by MarceloBongoMan

tuner correct add songbook print version text version save to e-mail
chordsukulelecavacokeyboardtabbassdrumsharmonicsflute Guitar Pro
chords

Brigadier Sabari

Year: 1990 - Album: Best of

  		Partition transcrite par broz 
 
 
 
 
Couplet : 
| / /Bbm/ / /Bbm/ / / G#/ / / G#/ | / /Bbm/ / /Bbm/ / /Bbm/ / /Bbm/ | 
|---------------------------------|---------------------------------| 
|---------------------------------|---------------------------------| 
|-----8---------------6-----------|---------------------------------| 
|-6---------------4---------------|-6---8-9-----6-6-6---------------| 
 
 
Refrain : 
| / /Ebm/ / /Ebm/ / / G#/ / / G#/ | / /Bbm/ / /Bbm/ / /Bbm/ / /Bbm/ | 
|---------------------------------|---------------------------------| 
|---------------------------------|---------------------------------| 
|-----8---------------6-----------|---------------------------------| 
|-6---------------4---------------|-6---8-9-----6-6-6---------------| 
 

	  

Full key step upFull key step up
Half key step upHalf key step up
Half key step downHalf key step down
Full key step downFull key step down
Search Paypal
auto scroll beats size up size down change color hide chords drawings
tab show chords e-chords YouTube Clip e-chords hide all tabs e-chords go to top tab