Alpha Blondy

home > Alpha Blondy

Afriki Bass Tab

Alpha Blondy

Difficulty: AdvancedAdvanced

by MarceloBongoMan

tuner correct add songbook print version text version save to e-mail
chordsukulelecavacokeyboardtabbassdrumsharmonicsflute Guitar Pro
chords

Afriki

Year: 1987 - Album: Apartheid Is Nazism

  		Partition transcrite par Douglas KIVINDA 
 
 
ALBUM : APARTHEID IS NAZISM  
 
 
 
G ||---------------2-2--------------------------------  
D ||----5-5-5-5--------3-3----------------------------  
A ||----------------------------5-5-5-----------------  
E ||--------------------------------------------------  
 
 
G ||--------------------------------------------------  
D ||----3-3-3-3-------5-5-------2-2-------------------  
A ||------------------------------------------3-3-----  
E ||--------------------------------------------------  
 

	  

Search Paypal
auto scroll beats size up size down change color hide chords drawings
tab show chords e-chords YouTube Clip e-chords hide all tabs e-chords go to top tab