Aerosmith

home > Aerosmith

Sweet Emotion Bass Tab

Aerosmith

Difficulty: ExpertExpert

tuner correct add songbook print version text version save to e-mail
chordsukulelecavacokeyboardtabbassdrummharmonicsflute Guitar Pro
chords

Sweet Emotion

  		/ = slide
p = pull off

Here is the intro..
G|-------12----14--------------------
D|-----------------------12------10--
A|-12-12---12----12---12---12-12-----
E|-----------------------------------


Heres the verse riff..
G|------------------------
D|---------------7-----7--
A|-0-0---0---3/5---3/5----
E|------------------------


Then this is the bridge..
G|--------------------------
D|--------------------------
A|-5-3-0--------------------
E|--------0-2-2-3-3-3-4--5--
Play that four times.


Then play the verse again..
Then the bridge twice..
Then play the intro riff during the chorus..
Then play the verse again..
Then the bridge once..

Then for the last verse, play this..
G|-------------------------
D|-------------------------
A|-5--0----0-0-3p0---0-----
E|-----------------3---3---

G|-----------------------
D|-----------------------
A|-5--0----0-0-3p0---0---
E|-----------------3-----

Then play the bridge twice..

At the last measure of that bridge, play this..
G|-------------
D|-------------
A|-5-3-0-------
E|--------0-2--
And hold that last note..

Then play this outro..
G|----------------------
D|----------------------
A|-----5--7-------------
E|-0-0--0--0---5-0-3h4--
Keep playing it until the song fades out..
	  

Search Paypal
auto scroll beats size up size down change color hide chords drawings
tab show chords e-chords YouTube Clip e-chords hide all tabs e-chords go to top tab