Aerosmith

home > Aerosmith

Sunshine Bass Tab

Aerosmith

Difficulty: nolevelnolevel

by meta11eir0

tuner correct add songbook print version text version save to e-mail
chordsukulelecavacokeyboardtabbassdrumsharmonicsflute Guitar Pro
chords

Sunshine

Year: 2001 - Album: Just Push Play

  		Aerosmith 
Sunshine 
 
 
Verso (4x) 
 
G|---------------------| 
D|-----------0-0-------| 
A|------2--2------0----| 
E|-2--2--------------4-| 
 
G|---------------------| 
D|-----------0-0-------| 
A|------2--2------0-024| 
E|-2--2----------------| 
 
 
Pre-Refrao 
G|---------------| 
D|-0-0----0-0----| 
A|------0------0-| 
E|---------------| 
 
G|---------------| 
D|---------------| 
A|-04-42-20-0----| 
E|-----------4-4-| 
 
Verso (2x) 
 
Pre-Refrao (1x) 
 
Refrao (2x) 
G|-----------------| 
D|-----0-----------| 
A|-------0-2--0----| 
E|-2--2---------4-0| 
 
G|-----------------| 
D|---4-2-0---------| 
A|----------44--2--| 
E|-2---------------| 
 
 
Final do Refrao 
G|------------------| 
D|------------------| 
A|-44--2--0---------| 
E|-------------3----| 
 
 
Verso (2x) 
 
Pre-Refrao (1x) 
 
Refrao (2x) 
 
Final do Refrao 
 
 
Solo 
G|-------------| 
D|-------------|       (3x) 
A|-4-42-20-02-2| 
E|-------------| 
 
G|--------| 
D|--------| 
A|-4-2-0--| 
E|--------| 
 
Verso (3x) 
 
Pre-Refrao (1x) 
 
Refrao (4x) 

	  

Search Paypal
auto scroll beats size up size down change color hide chords drawings
tab show chords e-chords YouTube Clip e-chords hide all tabs e-chords go to top tab