Aerosmith

home > Aerosmith

Falling In Love Bass Tab

Aerosmith

Difficulty: AdvancedAdvanced

tuner correct add songbook print version text version save to e-mail
chordsukulelecavacokeyboardtabbassdrumsharmonicsflute Guitar Pro
chords

Falling In Love

  		Tabbed By: Bob Gedarovich (FinalGambit) {[email protected]} 
Instrument Used: 4 String Bass, Standard Tuning  
Notes: This song is very slide intensive so try to pay attention and listen carefully.  
Purpose of this tab was to be relatively accurate, easy, and fun, not necessarily perfect.  
Send corrections to [email protected]   
   
{{{KEY}}} -----> X= Rest /= Slide Down \= Slide Up ~= Let Note Ring *Special Notation p=pop 
h=hammeron s=slap 
 
 
Intro/Bridge 
G|----------------|X2 
A|----------------| 
D|----------------| 
E|-1-33-1-33-1-3--| 
 
Verse {"You think you're in love..."} 
G|-------------------------------------------------------------------------------------|X1 
A|-/12-----------------------------------0/12------------------0/12--------------------| 
D|-----1-111-3-3-3-5~-X-/555-1-111-333-5------/555-1-111-333-5------/555-1-111-333-----| 
E|---------------------------------------------------------------------------------3~--| 
 
Intro/Bridge X2 
 
Verse 2 {"We was making love..."} 
G|-----------------------------|X2 
A|-----------------------------| 
D|----3~\1~-/6~-/3~-\6~-1~-----| 
E|-3~----------------------3~--| 
 
Intro/Bridge X1 
 
Verse X1 
 
Bridge 2 
G|------------------------------|X1 
A|------------------------------| 
D|-------------------------3h5--| 
E|-1-33-1-33-1-3-1-33-1-33------| 
 
Verse 2 X2 *At end, instead of ending on fret "3" on the E string, do a slide from fret 3 to 11 
on the E string.    
 
Intro/Bridge X1 
 
Verse X1 
 
Breakdown 
G|--------------------------------------------------------------------------------------------------------|X1 
A|--------------------------------------------------------------------------------------------------------| 
D|---------------------------------------------0-1-------------------------------------0/12-12-0/12-12-0--| 
E|-1-33-2-44-3-55-4-77-888888888888888888-33-5-----88888888-77777777-66666666-55555555--------------------| 
 
Guitar Solo 
G|---------------------------|X2 
A|---------------------------| 
D|-/555-11111-3333-5~-3h5p3--| 
E|---------------------------|  
 
Intro/Bridge X2 
Verse 2 X2 
Verse X3 
 
Outro 
G|-------------------------|X2 
A|-------------------------| 
D|-------------------------| 
E|-1-33-2-44-3-55-4-77-6\--|
	  

Search Paypal
auto scroll beats size up size down change color hide chords drawings
tab show chords e-chords YouTube Clip e-chords hide all tabs e-chords go to top tab