A Billion Ernies

Choose

A Billion Ernies

bass

by  VICTBORGES

save to print version add songbook text version e-mail correct tuner
chordsukulelecavacokeyboardtabbassdrumsharmonicaflute Guitar Pro
close

there isn't a video lesson for this song

chords

Choose

	  		


G|-------------------| 
D|-------------------| 
A|----6/7-7-----4-4--| 
E|4-4-------5-5------|x4 

G|-------------------| 
D|-------------------| 
A|----6-7-----4-4-4--| 
E|4-4-----5-5--------|x8 

0:24 
G|------------------------------------------------------------| 
D|---------------------------4-5-6-7-6-5-4--------------------| 
A|-----2-2-2----7---7-6--6-5--------------------2-2-2---------| 
E|4-44-------3----7-----6------------------4-44-------3--4-44-| 


0:34 
G|---------| 
D|---------| 
A|----4-4--| 
E|5-5------| 

G|-------------------| 
D|-------------------| 
A|----6-7-----4-4-4--| 
E|4-4-----5-5--------|x8 

0:51 
G|------------------------------------------------------------------------| 
D|---------------------------4-5-6-7-6-5-4--------------------------------| 
A|-----2-2-2----7---7-6--6-5--------------------2-2-2----4-5555-6666-7-7--| 
E|4-44-------3----7-----6------------------4-44-------3-------------------| 


1:01 
G|----------------------------|   = or 
D|--------------------1-1-1-| 
A|-------7-7-7---------6-6-6--| 
E|4-4-44--------2-2-22--------|x3 

G|------------------------------------------| 
D|--------------4-4-44-5-5-5-66-644-4-------| 
A|-------7-7-7-----------------------77-76--| 
E|4-4-44------------------------------------| 


1:20 
G|-------------------| 
D|-------------------| 
A|----6/7-7-----4-4--| 
E|4-4-------5-5------|x4 

G|-------------------| 
D|-------------------| 
A|----6-7-----4-4-4--| 
E|4-4-----5-5--------|x4 

1:36 
G|------------------------------------------------------------------| 
D|---------------------------4-5-6-7-6-5-4--------------------------| 
A|-----2-2-2----7---7-6--6-5--------------------2-2-2---------------| 
E|4-44-------3----7-----6------------------4-44-------3--00-1-11-2--| 


1:45 
G|----------------------------|   = or 
D|--------------------1-1-1-| 
A|-------7-7-7---------6-6-6--| 
E|4-4-44--------2-2-22--------|x3 

G|-----------------------------------------------| 
D|--------------4-4-44-5-5-5-6-------------------| 
A|-------7-7-7-----------------------------------| 
E|4-4-44-------------------------4-4---4--4---4--| 


2:09 
G|------------------| 
D|------------------| 
A|----7-6------7-6--| 
E|444-----7777------|x8 

G|---------------------| 
D|--7-7-7-7-7---7------| 
A|6-----------6---6-6--| 
E|---------------------| 


2:28 
G|-------------------------------------------------------| 
D|----------------------4--------------------------------| 
A|----6-7-6---------5/6---6\-------6-7-6-------66666666--| 
E|4---------7-2-2--------------4-4-------7-2-2-----------| 

G|---------------------------------------------| 
D|---------------------------------------------| 
A|----6-7-6--------6--6------6-7-6-------------| 
E|4-4-------7-2-2--------4-4-------7-2-2---4\--| 



 
		  

See also:

bass Deep Purple - Knocking At Your Back Door bass Deep Purple - Smoke On The Water (ver. 3) bass Deep Purple - Burn bass Deep Purple - When a Blind man cries bass Deep Purple - Strange kind of woman bass Deep Purple - Smoke On The Water
e-chords

Other versions:

bass A Billion Ernies - Choose
auto scroll beats size up size down change color hide chords drawings
tab show chords e-chords YouTube Clip e-chords hide all tabs e-chords go to top tab

share