4minute

Volume Up

4minute

bass

by  JESSGOMES

save to print version add songbook text version e-mail correct tuner
chordsukulelecavacokeyboardtabbassdrumsharmonicaflute Guitar Pro
close

there isn't a video lesson for this song

chords

Volume Up

	  		

0:15 
G|------------------------------------------------| 
D|------------------------------------------------| 
A|--19\-6-6-6-6-6\2-2-2-2-2\----------1-1-1-1-1/--| 
E|--------------------------4-4-4-4-4\------------| 

G|--------------------------------------------| 
D|--------------------------------------------| 
A|--6-6-6-6-6\2-2-2-2-2\----------1-1-1-1-1/--| 
E|----------------------4-4-4-4-4\------------| 

G|-----------------------------------------------| 
D|-----------------------------------------------| 
A|--6-6-6-6-6\2-2-2-2h4p2-1-----------1-1-1-124--| 
E|--------------------------4-4-4-4-4\-----------| 

G|-----------------------------------------------| 
D|-----------------------------------------------| 
A|--6-6-6-6-6\2-2-2-2h4p2-1-----------1-1-1-124--| 
E|--------------------------4-4-4-4-4\-----------| 

G|---------------------------------------| 
D|---------------------------------------| 
A|--66666664-66666664-66666664-66666664--| 
E|---------------------------------------| 

G|--------------------------------------------------------------| 
D|--------------------------------------------------------------| 
A|--6664-6664-6664-6664-66666666666666666666666666666666-0/15\--| 
E|--------------------------------------------------------------| 

1:00 
    SP SPS P SPSP  SP SPS P SPSP  SP SPS P SPSP  SP SPS P SPSP    
G|---8--8--8--8-8---4--4--4--4-4------------------3--3--3--3-3--| 
D|---------------------------------6--6--6--6-6-----------------| 
A|--6--6-6---6-6---2--2-2---2-2------------------1--1-1---1-1---| 
E|--------------------------------4--4-4---4-4------------------| 

    SP SPS P SPSP  SP SPS P SPSP  SP SPS P SPSP  SP SPS P SPSP    
G|---8--8--8--8-8---4--4--4--4-4------------------3--3--3--3-3--| 
D|---------------------------------6--6--6--6-6-----------------| 
A|--6--6-6---6-6---2--2-2---2-2------------------1--1-1---1-1---| 
E|--------------------------------4--4-4---4-4------------------| 

    SP SPS P SPSP  SP SPS P SPSP  SP SPS P SPSP  SP SPS P SPSP    
G|---8--8--8--8-8---4--4--4--4-4------------------3--3--3--3-3--| 
D|---------------------------------6--6--6--6-6-----------------| 
A|--6--6-6---6-6---2--2-2---2-2------------------1--1-1---1-1---| 
E|--------------------------------4--4-4---4-4------------------| 

    SP SPS P SPSP  SP SPS P SPSP  SP SPS P SPSP  SP SPS P SPSP    
G|---8--8--8--8-8---4--4--4--4-4------------------3--3--3--3-3--| 
D|---------------------------------6--6--6--6-6-----------------| 
A|--6--6-6---6-6---2--2-2---2-2------------------1--1-1---1-1---| 
E|--------------------------------4--4-4---4-4------------------| 

1:30 
G|--------------------------------------------| 
D|--------------------------------------------| 
A|--6-6-6-6-6\2-2-2-2-2\----------1-1-1-1-1/--| 
E|----------------------4-4-4-4-4\------------| 

G|--------------------------------------------| 
D|--------------------------------------------| 
A|--6-6-6-6-6\2-2-2-2-2\----------1-1-1-1-1/--| 
E|----------------------4-4-4-4-4\------------| 

G|-----------------------------------------------| 
D|-----------------------------------------------| 
A|--6-6-6-6-6\2-2-2-2h4p2-1-----------1-1-1-124--| 
E|--------------------------4-4-4-4-4\-----------| 

G|-----------------------------------------------| 
D|-----------------------------------------------| 
A|--6-6-6-6-6\2-2-2-2h4p2-1-----------1-1-1-124--| 
E|--------------------------4-4-4-4-4\-----------| 

G|---------------------------------------| 
D|---------------------------------------| 
A|--66666664-66666664-66666664-66666664--| 
E|---------------------------------------| 

G|--------------------------------------------------------------| 
D|--------------------------------------------------------------| 
A|--6664-6664-6664-6664-66666666666666666666666666666666-0/15\--| 
E|--------------------------------------------------------------| 

2:14 
    SP SPS P SPSP  SP SPS P SPSP  SP SPS P SPSP  SP SPS P SPSP    
G|---8--8--8--8-8---4--4--4--4-4------------------3--3--3--3-3--| 
D|---------------------------------6--6--6--6-6-----------------| 
A|--6--6-6---6-6---2--2-2---2-2------------------1--1-1---1-1---| 
E|--------------------------------4--4-4---4-4------------------| 

    SP SPS P SPSP  SP SPS P SPSP  SP SPS P SPSP  SP SPS P SPSP    
G|---8--8--8--8-8---4--4--4--4-4------------------3--3--3--3-3--| 
D|---------------------------------6--6--6--6-6-----------------| 
A|--6--6-6---6-6---2--2-2---2-2------------------1--1-1---1-1---| 
E|--------------------------------4--4-4---4-4------------------| 

    SP SPS P SPSP  SP SPS P SPSP  SP SPS P SPSP  SP SPS P SPSP    
G|---8--8--8--8-8---4--4--4--4-4------------------3--3--3--3-3--| 
D|---------------------------------6--6--6--6-6-----------------| 
A|--6--6-6---6-6---2--2-2---2-2------------------1--1-1---1-1---| 
E|--------------------------------4--4-4---4-4------------------| 

    SP SPS P SPSP  SP SPS P SPSP  SP SPS P SPSP  SP SPS P SPSP    
G|---8--8--8--8-8---4--4--4--4-4------------------3--3--3--3-3--| 
D|---------------------------------6--6--6--6-6-----------------| 
A|--6--6-6---6-6---2--2-2---2-2------------------1--1-1---1-1---| 
E|--------------------------------4--4-4---4-4------------------| 


2:58 
G|--/15-15-13-15-13-11-/16-15-13-/18-13/15-13/15-/15-13-11-/15-13-11-11/13--| 
D|--------------------------------------------------------------------------| 
A|--------------------------------------------------------------------------| 
E|--------------------------------------------------------------------------| 

G|--/15-15-13-15-13-11-16-15-13-/18--/15-/15-13-11-/15-15-15-15-15-15-15-15\--| 
D|----------------------------------------------------------------------------| 
A|----------------------------------------------------------------------------| 
E|----------------------------------------------------------------------------| 

3:13 
    SP SPS P SPSP  SP SPS P SPSP  SP SPS P SPSP  SP SPS P SPSP    
G|---8--8--8--8-8---4--4--4--4-4------------------3--3--3--3-3--| 
D|---------------------------------6--6--6--6-6-----------------| 
A|--6--6-6---6-6---2--2-2---2-2------------------1--1-1---1-1---| 
E|--------------------------------4--4-4---4-4------------------| 

    SP SPS P SPSP  SP SPS P SPSP  SP SPS P SPSP  SP SPS P SPSP    
G|---8--8--8--8-8---4--4--4--4-4------------------3--3--3--3-3--| 
D|---------------------------------6--6--6--6-6-----------------| 
A|--6--6-6---6-6---2--2-2---2-2------------------1--1-1---1-1---| 
E|--------------------------------4--4-4---4-4------------------| 

    SP SPS P SPSP  SP SPS P SPSP  SP SPS P SPSP  SP SPS P SPSP    
G|---8--8--8--8-8---4--4--4--4-4------------------3--3--3--3-3--| 
D|---------------------------------6--6--6--6-6-----------------| 
A|--6--6-6---6-6---2--2-2---2-2------------------1--1-1---1-1---| 
E|--------------------------------4--4-4---4-4------------------| 

    SP SPS P SPSP  SP SPS P SPSP  SP SPS P SPSP  SP SPS P SPSP    
G|---8--8--8--8-8---4--4--4--4-4------------------3--3--3--3-3--| 
D|---------------------------------6--6--6--6-6-----------------| 
A|--6--6-6---6-6---2--2-2---2-2------------------1--1-1---1-1---| 
E|--------------------------------4--4-4---4-4------------------| 
		  

See also:

bass 4minute - Volume Up bass Exo - The Eve ?? ?? bass T-ara - Wonder Woman
e-chords

Other versions:

bass 4minute - Volume Up
auto scroll beats size up size down change color hide chords drawings
tab show chords e-chords YouTube Clip e-chords hide all tabs e-chords go to top tab

share