Kaleidoscope

The Coronation Of The Fledgling

Kaleidoscope

ukulele

by  EDSOOLIVEIRA

save to print version add songbook text version e-mail correct tuner
chordsukulelecavacokeyboardtabbassdrumsharmonicaflute Guitar Pro
close

there isn't a video lesson for this song

chords

The Coronation Of The Fledgling

	  		
Tuning: 1/4 step down. 

0:24 

G|------------4-------7-------------------------------------------| 
D|--------5-------------------------------------------------------| 
A|3---5---------------------------3---5---3-----------------------| 
E|--------------------------------------------3-------------------| 

G|------------7---------------7-------------------| 
D|5-----------------------5---------------5-------| 
A|------------------------------------------------| 
E|------------------------------------------------| 

G|----------------------------------------------------------------| 
D|------------7-------------------------------5-------------------| 
A|5-------------------5-----------3-------------------3-----------| 
E|------------------------5-------------------------------3-------| 

G|------------7------7---7--------| 
D|--------------------------------| 
A|5-------------------------------| 
E|--------------------------------| 

G|------------7---------------7-------------------| 
D|5-----------------------5---------------5-------| 
A|------------------------------------------------| 
E|------------------------------------------------| 

G|----------------------------------------------------------------| 
D|------------7-------------------------------5-------------------| 
A|5-------------------5-----------3-------------------3-----------| 
E|------------------------5-------------------------------3-------| 

G|------------7------5---7--------| 
D|5-------------------------------| 
A|--------------------------------| 
E|--------------------------------| 

0:45 

G|--------------------------------------------7-------5---7-------| 
D|----------------5---3---5-------5-------------------------------| 
A|3---------------------------------------------------------------| 
E|----------------------------------------------------------------| 

G|--------------------------------------------7-------5---7-------| 
D|------------5-------3---5---------------------------------------| 
A|3---------------------------------------------------------------| 
E|----------------------------------------------------------------| 

G|----------------9-------9-------------------7-------7---7-------| 
D|------------9---------------------------7-----------------------| 
A|7-------------------------------5-------------------------------| 
E|----------------------------------------------------------------| 

G|------------9-------9---9-------------------7-------7---7-------| 
D|--------9-------------------------------7-----------------------| 
A|7-------------------------------5-------------------------------| 
E|----------------------------------------------------------------| 

G|7-------5-----------5---7-------| 
D|----------------7---------------| 
A|--------------------------------| 
E|--------------------------------| 

1:01 

G|--------7-----------------------------------------------7h9-----| 
D|5-----------------------5---------------6---7---9---------------| 
A|--------------------------------7-------------------------------| 
E|----------------------------------------------------------------| 

G|----------------------------5-----------7-------5---------------| 
D|--------4-------5---7-------------------------------7-----------| 
A|5---------------------------------------------------------------| 
E|----------------------------------------------------------------| 

G|--------7-----------------------------------------------7h9-----| 
D|5-----------------------5---------------6---7-------9-----------| 
A|--------------------------------7-------------------------------| 
E|----------------------------------------------------------------| 

G|----------------------------5-------7-------5-------------------| 
D|--------4-------5---7-----------------------------------5-------| 
A|5---------------------------------------------------------------| 
E|----------------------------------------------------------------| 

G|--------------------------------------------------------------------------------| 
D|------------5-----------5-------5-------5-------5-------5-------5---5---5-------| 
A|----3---------------------------------------------------------------------------| 
E|--------------------------------------------------------------------------------| 

1:20 

G|--------7-------5---4-----------------------------------5---7---| 
D|5-----------------------5---------------4-------5---7-----------| x2 
A|----------------------------5-----------------------------------| 
E|----------------------------------------------------------------| 

G|--------7-------5---------------------------------------5---7---| 
D|5-----------------------5---------------4---5-------7-----------| 
A|--------------------------------5-------------------------------| 
E|----------------------------------------------------------------| 

G|----------------| 
D|------------5---| 
A|3---3---3-------| 
E|----------------| 



1:37 

G|------------4-------7-------------------------------------------| 
D|--------5-------------------------------------------------------| 
A|3-/-5---------------------------3---5---3-----------------------| 
E|--------------------------------------------3-------------------| 

G|------------7---------------7-------------------| 
D|5-----------------------5---------------5-------| 
A|------------------------------------------------| 
E|------------------------------------------------| 

G|----------------------------------------------------------------| 
D|------------7-------------------------------5-------------------| 
A|5-------------------5-----------3-------------------3-----------| 
E|------------------------5-------------------------------3-------| 

G|------------7------7---7--------| 
D|--------------------------------| 
A|5-------------------------------| 
E|--------------------------------| 

G|------------7---------------7-------------------| 
D|5-----------------------5---------------5-------| 
A|------------------------------------------------| 
E|------------------------------------------------| 

G|----------------------------------------------------------------| 
D|------------7-------------------------------5-------------------| 
A|5-------------------5-----------3-------------------3-----------| 
E|------------------------5-------------------------------3-------| 

G|------------7------5---7--------| 
D|5-------------------------------| 
A|--------------------------------| 
E|--------------------------------| 

1:58 

G|--------------------------------------------7-------5---7-------| 
D|----------------5---3---5-------5-------------------------------| 
A|3---------------------------------------------------------------| 
E|----------------------------------------------------------------| 

G|--------------------------------------------7-------5---7-------| 
D|------------5-------3---5-------5-------------------------------| 
A|3---------------------------------------------------------------| 
E|----------------------------------------------------------------| 

G|----------------9-------9-------------------7-------7---7-------| 
D|------------9---------------------------7-----------------------| 
A|7-------------------------------5-------------------------------| 
E|----------------------------------------------------------------| 

G|------------9-------9---9-------------------7-------7---7-------| 
D|--------9-------------------------------7-----------------------| 
A|7-------------------------------5-------------------------------| 
E|----------------------------------------------------------------| 

G|7-------5-----------5---7-------| 
D|----------------7---------------| 
A|--------------------------------| 
E|--------------------------------| 
		  
E-Chords has the most powerful ukulele chords dictionary on the internet. You can enter any chord and even choose the pitch of each string.

auto scroll beats size up size down change color
tab show chords e-chords YouTube Clip e-chords hide all tabs e-chords go to top tab

share