Children Of Bodom

Bodom After Midnight

Children Of Bodom

ukulele

save to print version add songbook text version e-mail correct tuner
chordsukulelecavacokeyboardtabbassdrumsharmonicaflute Guitar Pro
close

there isn't a video lesson for this song

chords

Bodom After Midnight

	  		Words and Music by Alexi Laiho
Arranged by Alexi Laiho

Gtr I (D G C F A D ) - 'Leadguitar'
Gtr II (D G C F A D ) - 'Rhythmguitar'

    Q=135                                 1.
   4/4
    Gtr I
       PM----------|      PM|                  PM------------|
     S S S S S S S S  S S S S  S S  S S    S S S S S S S S S S E. E.
||--------------------------------------|-----------------------------||
||o-------------------------------------|----------------------------o||
||--------------------------------------|-----------------------------||
||--12p9-9-9-9-9-9-9-12p9-9-9-11p9-14p9-|-12p9-9-9-9-9-9-9-9-9-9--7---||
||o-------------------------------------|----------------------------o||
||--------------------------------------|-----------------------------||
|
|   Gtr II
|      PM----------|      PM|                  PM------------|
|    S S S S S S S S  S S S S  S S  S S    S S S S S S S S S S E. E.
||--------------------------------------|-----------------------------||
||o-------------------------------------|----------------------------o||
||--------------------------------------|----------------------9--7---||
||--------------------------------------|----------------------9--7---||
||o-10p7-7-7-7-7-7-7-10p7-7-7--9p7-12p7-|-10p7-7-7-7-7-7-7-7-7-7--5--o||
||--------------------------------------|-----------------------------||


  2.
       PM------------|
   S S S S S S S S S S E. E.    S  S  S  S  S  S  S  S  S  S  S  S  S  S  S  S
|----------------------------|-15-14-12----14-12-------12----------------------|
|----------------------------|----------15-------15-13----15-13-12-15-13-12----|
|----------------------------|----------------------------------------------14-|
|-12p9-9-9-9-9-9-9-9-9-5--7--|-------------------------------------------------|
|----------------------------|-------------------------------------------------|
|----------------------------|-------------------------------------------------|
|
|      PM------------|                PM------------|         PM|
|  S S S S S S S S S S E. E.    E     S  S  S  S  S  S  E     S  S  E     E
|----------------------------|-------------------------------------------------|
|----------------------------|-------------------------------------------------|
|----------------------5--7--|--9-----------------------9-----------7-----7----|
|----------------------5--7--|--9-----------------------9-----------7-----7----|
|-10p7-7-7-7-7-7-7-7-7-3--5--|--7-----7--7--7--7--7--7--7-----7--7--5-----5----|
|----------------------------|-------------------------------------------------|


   S  S  S  S  S  S  S  S  S  S  S   S  S  S   S  S
|---------------------------------------------------|
|-13-12---------------------------------------------|
|-------14-12-16-14-12-11-14-12-11-----12-11--------|
|-----------------------------------14--------14-12-|
|---------------------------------------------------|
|---------------------------------------------------|
|
|        PM------------------|
|  E     S  S  S  S  S  S  S  S  E.        E.
|---------------------------------------------------|
|---------------------------------------------------|
|--9-----------------------------5---------7--------|
|--9-----------------------------5---------7--------|
|--7-----7--7--7--7--7--7--7--7--3---------5--------|
|---------------------------------------------------|


  S S  S S S  S S S  S S S  S S S  S S
|--------------------------------------|
|------------------------------------8-|
|--------7------7-9----7-9-11-7-9-11---|
|-7-9-10---9-10-----10-----------------|
|--------------------------------------|
|--------------------------------------|
|
|      PM---------|      PM|
| E    S S S  S S S  E   S  S E    E
|--------------------------------------|
|--------------------------------------|
|-9------------------9--------7----7---|
|-9------------------9--------7----7---|
|-7----7-7-7--7-7-7--7---7--7-5----5---|
|--------------------------------------|


  S  S S  S  S S  S  S S  S  S  S  S  S  S  S    Q      H               E E
|-------------------------------8--------8-10-|-12-------------------------|
|------8-10----8-10-12-8-10-12----10-12-------|-------------------------7-7-|
|-9-11------11--------------------------------|-----------------------------|
|---------------------------------------------|-----------------------------|
|---------------------------------------------|-----------------------------|
|---------------------------------------------|-----------------------------|
|
|      PM----------------|                       PM-------------------|
| E    S  S  S S  S  S S  S  E.       E.         E  S S S S S S S S S S E E
|---------------------------------------------|-----------------------------|
|---------------------------------------------|-----------------------------|
|-9--------------------------5--------7-------|-------------------------7-7-|
|-9--------------------------5--------7-------|-------------------------7-7-|
|-7----7--7--7-7--7--7-7--7--3--------5-------|--7--7-7-7-7-7-7-7-7-7-7-5-5-|
|---------------------------------------------|-----------------------------|


  H.                      E  E   H.                     E E
|------------------------------|----------------------------|
|-------------------------8--7-|------------------------7-7-|
|------------------------------|----------------------------|
|------------------------------|----------------------------|
|------------------------------|----------------------------|
|------------------------------|----------------------------|
|
| PM-------------------|         PM-------------------|
| E  S S S S S S S S S S  E  E   E  S S S S S S S S S S E E
|------------------------------|----------------------------|
|------------------------------|----------------------------|
|------------------------12-11-|------------------------7-7-|
|------------------------12-11-|------------------------7-7-|
|-7--7-7-7-7-7-7-7-7-7-7-10--9-|-7--7-7-7-7-7-7-7-7-7-7-5-5-|
|------------------------------|----------------------------|


   S  S  S  S  S  S  S S  S  S S S  S S S S
|-15-14-12-10-14-12-10-8-12-10-8-7----------|
|----------------------------------10-8-7-5-|
|-------------------------------------------|
|-------------------------------------------|
|-------------------------------------------|
|-------------------------------------------|
|
|  Q           Q          Q         Q
|-------------------------------------------|
|-------------------------------------------|
|--9-----------7----------5---------2-------|
|--9-----------7----------5---------2-------|
|--7-----------5----------3---------0-------|
|-------------------------------------------|


    PM------------------|       PM------------------|
    E S S S S S S S S S S E E   E S S S S S S S S S S  E  E
||----------------------------|------------------------------|
||o-----------------------7-7-|------------------------8--7--|
||----------------------------|------------------------------|
||----------------------------|------------------------------|
||o---------------------------|------------------------------|
||--0-0-0-0-0-0-0-0-0-0-0-----|-0-0-0-0-0-0-0-0-0-0-0--------|
|
|   PM------------------|       PM------------------|
|   E S S S S S S S S S S E E   E S S S S S S S S S S  E  E
||----------------------------|------------------------------|
||o---------------------------|------------------------------|
||------------------------7-7-|-----------------------12-11--|
||------------------------7-7-|-----------------------12-11--|
||o-----------------------5-5-|-----------------------10--9--|
||--0-0-0-0-0-0-0-0-0-0-0-----|-0-0-0-0-0-0-0-0-0-0-0--------|


                              1.
  PM------------------|
  E S S S S S S S S S S E E    S  S  S  S  S  S  S S  S  S S S  S S S S
|---------------------------|-15-14-12-10-14-12-10-8-12-10-8-7-----------||
|-----------------------7-7-|----------------------------------10-8-7-5-o||
|---------------------------|--------------------------------------------||
|---------------------------|--------------------------------------------||
|---------------------------|-------------------------------------------o||
|-0-0-0-0-0-0-0-0-0-0-0-----|--------------------------------------------||
|
| PM------------------|
| E S S S S S S S S S S E E    Q           Q          Q         Q
|---------------------------|--------------------------------------------||
|---------------------------|-------------------------------------------o||
|-----------------------7-7-|--9-----------7----------5---------2--------||
|-----------------------7-7-|--9-----------7----------5---------2--------||
|-----------------------5-5-|--7-----------5----------3---------0-------o||
|-0-0-0-0-0-0-0-0-0-0-0-----|--------------------------------------------||


  2.
   |--3--|  |--3--|  |--3--|  |--3--|  |--3--|  |--3--|  |--3--|  |--3--|
   S  S  S  S  S  S  S  S  S  S  S  S  S  S  S  S  S  S  S  S  S  S  S  S
|-19-17-15-19-17-15-------------------------------------------------------|
|-------------------19-17-15-19-17-15-------------------------------------|
|-------------------------------------19-17-16-19-17-16-------------------|
|-------------------------------------------------------19-17-16-19-17-16-|
|-------------------------------------------------------------------------|
|-------------------------------------------------------------------------|
|
|  Q                 Q                 Q                 E        E
|-------------------------------------------------------------------------|
|-------------------------------------------------------------------------|
|--9-----------------7-----------------9-----------------5--------7-------|
|--9-----------------7-----------------9-----------------5--------7-------|
|--7-----------------5-----------------7-----------------3--------5-------|
|-------------------------------------------------------------------------|


                  PM----------|      PM|
   H    H       S S S S S S S S  S S S S  S S  S S
|------------|-------------------------------------|
|------------|-------------------------------------|
|------------|-------------------------------------|
|-14---------|-12p9-9-9-9-9-9-9-12p9-9-9-11p9-14p9-|
|------------|-------------------------------------|
|------------|-------------------------------------|
|
|                 PM----------|      PM|
|  H    H       S S S S S S S S  S S S S  S S  S S
|------------|-------------------------------------|
|------------|-------------------------------------|
|--5----7----|-------------------------------------|
|--5----7----|-------------------------------------|
|--3----5----|-10p7-7-7-7-7-7-7-10p7-7-7--9p7-12p7-|
|------------|-------------------------------------|


  H    H      q  Q  q  Q    Q  Q  Q  Q
|-----------|-------------|-------------|
|-----------|-------------|-------------|
|-5----7----|-------7-----|-9--7--9--5--|
|-5----7----|-9-----7-----|-9--7--9--5--|
|-3----5----|-9-----5-----|-7--5--7--3--|
|-----------|-7-----------|-------------|
|
| H    H      q  Q  q  Q    Q  Q  Q  Q
|-----------|-------------|-------------|
|-----------|-------------|-------------|
|-5----7----|-------7-----|-9--7--9--5--|
|-5----7----|-9-----7-----|-9--7--9--5--|
|-3----5----|-9-----5-----|-7--5--7--3--|
|-----------|-7-----------|-------------|


    PM----|       PM--|       PM----|       PM--|
    S S S S E E S S S S E E   S S S S E E S S S S  Q
||--------------------------|--------------------------|
||o-------------------------|--------------------------|
||--------------------------|---------------------9 --|
||----------5-----------9-5-|---------5----------------|
||o-3-3-3-3---7---7-7-7-----|-3-3-3-3---7---7-7-7------|
||--------------------------|--------------------------|
|
|   PM----|       PM--|       PM----|       PM--|
|   S S S S E E S S S S E E   S S S S E E S S S S  Q
||--------------------------|--------------------------|
||o-------------------------|--------------------------|
||--------------------------|--------------------------|
||----------5-5---------9-9-|---------5-5----------9---|
||o-3-3-3-3-3-3---7-7-7-7-7-|-3-3-3-3-3-3---7-7-7--7---|
||--------------------------|--------------------------|


                            1.
  PM----|       PM--|       PM----|     PM----|
  S S S S E E S S S S E E   S S S S E E S S S S Q
|-------------------------|-------------------------||
|-------------------------|------------------------o||
|-------------------------|---------------------8---||
|---------5-----------9-5-|---------5-----------8---||
|-3-3-3-3---7---7-7-7-----|-3-3-3-3---7-7-7-7-7-6--o||
|-------------------------|-------------------------||
|
| PM----|       PM--|       PM----|     PM----|
| S S S S E E S S S S E E   S S S S E E S S S S Q
|-------------------------|-------------------------||
|-------------------------|------------------------o||
|-------------------------|---------------------8---||
|---------5-5---------9-9-|---------5-5---------8---||
|-3-3-3-3-3-3---7-7-7-7-7-|-3-3-3-3-3-3-7-7-7-7-6--o||
|-------------------------|-------------------------||


  2.
  PM----|     PM|    PM|
  S S S S E E S S  E S S  E
|------------------------------|
|------------------------------|
|-----------------12-----12----|
|---------5-------12-----12----|
|-3-3-3-3---7-7-7-10-7-7-10----|
|------------------------------|
|
| PM----|     PM|    PM|
| S S S S E E S S  E S S  E
|------------------------------|
|------------------------------|
|-----------------12-----12----|
|---------5-5-----12-----12----|
|-3-3-3-3-3-3-7-7-10-7-7-10----|
|------------------------------|


  E   Q.           E   E   E   E     E   H               E   S S S S
|----------------------------------|---------------------------------|
|----------------------------------|---------------------------------|
|-9----------------9-------8---8---|-9-------------------------------|
|-9----------------9-------8---8---|-9-----------------------------5-|
|-7----------------7-------6---6---|-7-----------------------3-5-7---|
|----------------------------------|---------------------------------|
|
| PM---------------------------------------------------------------|
| S S S  S S S S S S S S S S S S S   S S S S S S S S S S S S S S S S
|----------------------------------|---------------------------------|
|----------------------------------|---------------------------------|
|----------------------------------|---------------------------------|
|----------------------------------|---------------------------------|
|----------------------------------|---------------------------------|
|-0-0-0--0-0-0-0-0-0-0-0-0-0-0-0-0-|-0-0-0-0-0-0-0-0-0-0-0-0-0-0-0-0-|


                                     |-3-| |-3-| |-3-| |-3-| |-3--|
  E   Q.           E   E   E   E     S S S S S S S S S S S S Q Q  Q
|----------------------------------|---------------------------------|
|----------------------------------|---------------------------------|
|-9----------------9-------8---8---|-9-7-5---------------------------|
|-9----------------9-------8---8---|-------9-7-5-------------5-7--9--|
|-7----------------7-------6---6---|-------------9-7-5---------------|
|----------------------------------|-------------------8-7-5---------|
|
| PM-----------------------------|               PM--------|
|                                                |-3-| |-3-| |-3--|
| S S S  S S S S S S S S S S S S S   E     E     S S S S S S Q Q  Q
|----------------------------------|---------------------------------|
|----------------------------------|---------------------------------|
|----------------------------------|-9-------------------------------|
|----------------------------------|-9-------------------------------|
|----------------------------------|-7-----------7-7-7-7-7-7-7-9-10--|
|-0-0-0--0-0-0-0-0-0-0-0-0-0-0-0-0-|-0-------------------------------|


  PM------------------|         PM------------------|
  E S S S S S S S S S S  E  E   E S S S S S S S S S S  E  E
|-----------------------------|-----------------------------|
|-----------------------------|-----------------------------|
|-----------------------------|-----------------------------|
|------------------------9--9-|-----------------------10--9-|
|-0-0-0-0-0-0-0-0-0-0-0-------|-0-0-0-0-0-0-0-0-0-0-0-------|
|-----------------------------|-----------------------------|
|
| PM------------------|         PM------------------|
| E S S S S S S S S S S  E  E   E S S S S S S S S S S  E  E
|-----------------------------|-----------------------------|
|-----------------------------|-----------------------------|
|-----------------------12-12-|--------------------------12-|
|-----------------------12-12-|-----------------------12-12-|
|-0-0-0-0-0-0-0-0-0-0-0-10-10-|-0-0-0-0-0-0-0-0-0-0-0-12-10-|
|-----------------------------|-----------------------10----|


  PM------------------|
  E S S S S S S S S S S  E  E    S  S  S  S  S  S  S S  S  S S S  S S S S
|-----------------------------|-15-14-12-10-14-12-10-8-12-10-8-7----------|
|-----------------------------|----------------------------------10-8-7-5-|
|-----------------------------|-------------------------------------------|
|------------------------9--9-|-------------------------------------------|
|-0-0-0-0-0-0-0-0-0-0-0-------|-------------------------------------------|
|-----------------------------|-------------------------------------------|
|
| PM------------------|
| E S S S S S S S S S S  E  E    Q           Q          Q         Q
|-----------------------------|-------------------------------------------|
|-----------------------------|-------------------------------------------|
|-----------------------12-12-|-14----------12---------10---------7-------|
|-----------------------12-12-|-14----------12---------10---------7-------|
|-0-0-0-0-0-0-0-0-0-0-0-10-10-|-12----------10----------8---------5-------|
|-----------------------------|-------------------------------------------|


                                   PM------------------|
  Q        S S S S S S S S  E  E   E S S S S S S S S S S  E  E
|--------------------------------|-----------------------------|
|--------------------------------|-----------------------------|
|-7b9============================|=============================|
|---------------------------9--9-|-----------------------10--9-|
|----------0-0-0-0-0-0-0-0-------|-0-0-0-0-0-0-0-0-0-0-0-------|
|--------------------------------|-----------------------------|
|
| PM---------------------|         PM------------------|
| E    S S S S S S S S S S  E  E   E S S S S S S S S S S  E  E
|--------------------------------|-----------------------------|
|--------------------------------|-----------------------------|
|--------------------------12-12-|--------------------------12-|
|--------------------------12-12-|-----------------------12-12-|
|-0----0-0-0-0-0-0-0-0-0-0-10-10-|-0-0-0-0-0-0-0-0-0-0-0-12-10-|
|--------------------------------|-----------------------10----|


  PM------------------|
  E S S S S S S S S S S  E  E
|-----------------------------|
|-----------------------------|
|-----------------------------|
|------------------------9--9-|
|-0-0-0-0-0-0-0-0-0-0-0-------|
|-----------------------------|
|
| PM------------------|
| E S S S S S S S S S S  E  E
|-----------------------------|
|-----------------------------|
|-----------------------12-12-|
|-----------------------12-12-|
|-0-0-0-0-0-0-0-0-0-0-0-10-10-|
|-----------------------------|


   |--3--|  |--3--|
   S  S  S  S  S  S  S  S  S  S  S  S  S  S  E  E    Q  Q   H
|-12-14-15-19-15-14-12----------------------------|--------------|
|----------------------15-13-12-13-12-------------|--------------|
|-------------------------------------14-12-14-12-|--------12----|
|-------------------------------------------------|--------12----|
|-------------------------------------------------|-15-----10----|
|-------------------------------------------------|--------------|
|
|                                PM------|
|  Q                 Q           S  S  S  S  E  E    H      H
|-------------------------------------------------|--------------|
|-------------------------------------------------|--------------|
|-14----------------12----------------------14-12-|-10-----12----|
|-14----------------12----------------------14-12-|-10-----12----|
|-12----------------10----------12-12-12-12-12-10-|--8-----10----|
|-------------------------------------------------|--------------|


        PM--------|       PM|       PM|
   S  S S S S S S S  S  S S S  S  S S S    H     H
|---------------------------------------|-------------|
|---------------------------------------|-------------|
|---------------------------------------|-10----12----|
|--9h10--------------9h10------9h10-----|-10----12----|
|-------0-0-0-0-0-0-------0-0-------0-0-|--8----10----|
|---------------------------------------|-------------|
|
|       PM--------|       PM|       PM|
|  S  S S S S S S S  S  S S S  S  S S S    H     H
|---------------------------------------|-------------|
|---------------------------------------|-------------|
|---------------------------------------|-10----12----|
|---------------------------------------|-10----12----|
|-10h12-0-0-0-0-0-0-10h12-0-0-10h12-0-0-|--8----10----|
|---------------------------------------|-------------|


  S S S  S S S  S S  S S S  S S S  S S    Q   Q   Q   Q
|--------------------------------------|-----------------|
|--------------------------------------|-----------------|
|-9---9-10-9-7-------9---9-10-9-7------|-14--12--14--10--|
|--------------10-9---------------10-9-|-14--12--14--10--|
|--------------------------------------|-12--10--12---8--|
|--------------------------------------|-----------------|
|
| q        Q         q        Q           Q   Q   Q   Q
|--------------------------------------|-----------------|
|--------------------------------------|-----------------|
|-9-----------------12-----------------|-14--12--14--10--|
|-9-----------------12-----------------|-14--12--14--10--|
|-7-----------------10-----------------|-12--10--12---8--|
|--------------------------------------|-----------------|


  PM----|          PM---|          PM----|          PM---|
  S S S S  E  E S  S  S  S  E  E   S S S S  E  E S  S  S  S   Q
|--------------------------------|--------------------------------|
|--------------------------------|--------------------------------|
|--------------------------------|--------------------------14 --|
|---------10---------------14-10-|---------10---------------------|
|-8-8-8-8----12---12-12-12-------|-8-8-8-8----12---12-12-12-------|
|--------------------------------|--------------------------------|
|
| PM----|          PM---|          PM----|          PM---|
| S S S S  E  E S  S  S  S  E  E   S S S S  E  E S  S  S  S   Q
|--------------------------------|--------------------------------|
|--------------------------------|--------------------------------|
|--------------------------------|--------------------------------|
|---------10-10------------14-14-|---------10-10-------------14---|
|-8-8-8-8--8--8---12-12-12-12-12-|-8-8-8-8--8--8---12-12-12--12---|
|--------------------------------|--------------------------------|


  PM----|          PM---|           PM------|         PM------|
  S S S S  E  E S  S  S  S  E  E    S  S  S  S  E  E  S  S  S  S  E  E
|--------------------------------|-------------------------------------|
|--------------------------------|-------------------------------------|
|--------------------------------|-------------12----------------16-12-|
|---------10---------------14-10-|-10-10-10-10----14-14-14-14-14-------|
|-8-8-8-8----12---12-12-12-------|-------------------------------------|
|--------------------------------|-------------------------------------|
|
| PM----|          PM---|           PM------|         PM------|
| S S S S  E  E S  S  S  S  E  E    S  S  S  S  E  E  S  S  S  S  E  E
|--------------------------------|-------------------------------------|
|--------------------------------|-------------------------------------|
|--------------------------------|-------------------------------------|
|---------10-10------------14-14-|--------------5--5--------------9--9-|
|-8-8-8-8--8--8---12-12-12-12-12-|--3--3--3--3--3--3--7--7--7--7--7--7-|
|--------------------------------|-------------------------------------|


   PM------|           PM---|           PM------|           PM---|
   S  S  S  S  E  E S  S  S  S  E  E    S  S  S  S  E  E S  S  S  S   Q
|------------------------------------|------------------------------------|
|------------------------------------|------------------------------------|
|-------------12---------------16-12-|-------------12---------------------|
|-10-10-10-10----14---14-14-14-------|-10-10-10-10----14---14-14-14-14 --|
|------------------------------------|------------------------------------|
|------------------------------------|------------------------------------|
|
|  PM------|           PM---|           PM------|           PM---|
|  S  S  S  S  E  E S  S  S  S  E  E    S  S  S  S  E  E S  S  S  S   Q
|------------------------------------|------------------------------------|
|------------------------------------|------------------------------------|
|------------------------------------|------------------------------------|
|--------------5--5-------------9--9-|--------------5--5--------------9---|
|--3--3--3--3--3--3----7--7--7--7--7-|--3--3--3--3--3--3----7--7--7---7---|
|------------------------------------|------------------------------------|


   PM------|           PM---|           PM---------------------------|
                                        |------3-------| |-----3------|
   S  S  S  S  E  E S  S  S  S  E  E    E  E  E  E  E  E E  E  E E E  E
|------------------------------------|----------------------------------|
|------------------------------------|----------------------------------|
|-------------12---------------16-12-|----------------------------------|
|-10-10-10-10----14---14-14-14-------|----------------------------------|
|------------------------------------|-12-14-15-10-12-14-9-10-12-7-9-10-|
|------------------------------------|----------------------------------|
|
|  PM------|           PM---|           PM---------------------------|
|                                       |------3-------| |-----3------|
|  S  S  S  S  E  E S  S  S  S  E  E    E  E  E  E  E  E E  E  E E E  E
|------------------------------------|----------------------------------|
|------------------------------------|----------------------------------|
|------------------------------------|----------------------------------|
|--------------5--5-------------9--9-|----------------------------------|
|--3--3--3--3--3--3----7--7--7--7--7-|-12-14-15-10-12-14-9-10-12-7-9-10-|
|------------------------------------|----------------------------------|


                                   1.,3.
    |--3--|  |--3--|  |-3--|       |--3--|  |--3--| |--3--|
    E  E  E  E  E  E  E E  E  Q    E  E  E  E  E  E E  E  E Q
||-------------------------------|------------------------------||
||o---------10-------------------|---------10------------------o||
||--9-11-12----12-11----9-11-12--|-9-11-12----12-11-9-------9---||
||-------------------12----------|--------------------10-12-----||
||o------------------------------|-----------------------------o||
||-------------------------------|------------------------------||
|
|   H                 H            H                Q       Q
||-------------------------------|------------------------------||
||o------------------------------|-----------------------------o||
||--9-----------------5----------|-9----------------5-------7---||
||--9-----------------5----------|-9----------------5-------7---||
||o-7-----------------3----------|-7----------------3-------5--o||
||--7-----------------3----------|-7----------------3-------5---||


  2.,4.
                            2/4
  |--3--|  |--3--|
  E  E  E  E  E  E  Q   Q    Q  Q
|--------------------------|-------|
|---------10---------------|-------|
|-9-11-12----12-11-12--11--|-9--7--|
|--------------------------|-------|
|--------------------------|-------|
|--------------------------|-------|
|
| H                 Q   Q    Q  Q
|--------------------------|-------|
|--------------------------|-------|
|-9----------------12--11--|-9--7--|
|-9----------------12--11--|-9--7--|
|-7----------------10---9--|-7--5--|
|-7----------------10---9--|-7--5--|


 4/4
   PM------------------------------------------------
   S   S  S  S  S   S  S  S  S  S  S  S  S  S  S  S
|---------------------------------------------------|
|---------------------------------------------------|
|---------------------------------------------------|
|---------------------------------------------------|
|-10--10-12-10-13--10-15-10-10-12-10-10-13-10-10-10-|
|---------------------------------------------------|
|
|  Q            H.
|---------------------------------------------------|
|---------------------------------------------------|
|--9------------------------------------------------|
|--9-----------------------------------------------|
|--7------------------------------------------------|
|---------------------------------------------------|


 -------------------------------------------------|
   S   S  S  S  S  S  S   S  S  S   S  S  S  S  S  S
|-----------------------------------------------------|
|-----------------------------------------------------|
|-----------------------------------------------------|
|-----------------------------------------------------|
|-10--10-12-10-13-10-12--10-10-----10-10-10-10-10-10--|
|------------------------------13---------------------|
|
|  Q.                 e.        e.        Q
|-----------------------------------------------------|
|-----------------------------------------------------|
|-----------------------------------------------------|
|---------------------5---------3---------5-----------|
|---------------------5---------3---------5-----------|
|---------------------3---------1---------3-----------|


   PM----------------------------------------------
   S  S  S  S  S  S  S  S  S  S  S  S  S  S  S  S
|-------------------------------------------------|
|-------------------------------------------------|
|-------------------------------------------------|
|-------------------------------------------------|
|-10-10-12-10-13-10-15-10-10-12-10-10-13-10-10-10-|
|-------------------------------------------------|
|
|  W
|-------------------------------------------------|
|-------------------------------------------------|
|-------------------------------------------------|
|-------------------------------------------------|
|-------------------------------------------------|
|-------------------------------------------------|


 -------------------------------------------------|
   S   S  S  S  S  S  S   S  S  S   S  S  S  S  S  S
|----------------------------------------------------|
|----------------------------------------------------|
|----------------------------------------------------|
|----------------------------------------------------|
|-10--10-12-10-13-10-12--10-10-----10-10-10-10-10-10-|
|------------------------------13--------------------|
|
|  Q.                 e.        e.        Q
|----------------------------------------------------|
|----------------------------------------------------|
|--------------------12--------10--------12----------|
|--------------------12--------10--------12----------|
|--------------------10---------8--------10----------|
|----------------------------------------------------|


     PM----------------------------------------------
     S  S  S  S  S  S  S  S  S  S  S  S  S  S  S  S
||--------------------------------------------------|
||o-------------------------------------------------|
||--------------------------------------------------|
||--------------------------------------------------|
||o-10-10-10-10-10-10-10-10-10-10-10-10-10-10-10-10-|
||--------------------------------------------------|
|
|    PM----------------------------------------------
|    E     S  S  E     S  S  E     S  S  E     S  S
||--------------------------------------------------|
||o-------------------------------------------------|
||--------------------------------------------------|
||--------------------------------------------------|
||o-------------------------------------------------|
||---3-----3--3--3-----3--3--3-----3--3--3-----3--3-|


 ------------------------------------------------|
   S  S  S  S  S  S  S  S  S   S  S  S   S  S  S  S
|-----------------------------------------------------||
|----------------------------------------------------o||
|-----------------------------------------------------||
|-----------------------------------------------------||
|-10-10-10-10-10-10-10-10-10--10-10-10--10-10-10-10--o||
|-----------------------------------------------------||
|
|-------------|            PM-----------------|
|  E     S  S  E     S  S  E.        E.        E
|-----------------------------------------------------||
|----------------------------------------------------o||
|-----------------------------------------------------||
|--------------------------5---------3---------5------||
|--------------------------5---------3---------5-----o||
|--3-----3--3--3-----3--3--3---------1---------3------||


     S S  S S  S S  S S S  S S S  S S S S
||----------------------------------------|
||o-12-0-14-0-15-0-17-0-0-14-0-0-15-0-0-0-|
||----------------------------------------|
||----------------------------------------|
||o---------------------------------------|
||----------------------------------------|
|
|    PM------------------------------------
|    E    S S  E    S S E    S S  E   S S
||----------------------------------------|
||o---------------------------------------|
||----------------------------------------|
||----------------------------------------|
||o--2----2-2--2----2-2-2----2-2--2-------|
||------------------------------------3-3-|


   S S  S S  S S  S S S  S S S  S S S S
|-----------------------------------------||
|-12-0-14-0-15-0-14-0-0----0-0-12-0-0-0--o||
|-----------------------14----------------||
|-----------------------------------------||
|----------------------------------------o||
|-----------------------------------------||
|
|-------------------------------------|
|  E    S S  E    S S E    S S  E   S S
|-----------------------------------------||
|----------------------------------------o||
|-----------------------------------------||
|-----------------------------------------||
|-----------------------------------2-2--o||
|--3----3-3--3----5-5-5----5-5--5---------||


   S S  S S  S S  S S S  S S S  S S S S
|-12-0-14-0-15-0-17-0-0-14-0-0-15-0-0-0-|
|---------------------------------------|
|---------------------------------------|
|---------------------------------------|
|---------------------------------------|
|---------------------------------------|
|
|       PM        PM-------|
|  E    E    E    E   E    E    E   E
|---------------------------------------|
|---------------------------------------|
|--9---------9------------------7-------|
|--9---------9----------------------9---|
|--7----7----7----7--------7------------|
|---------------------8-----------------|


   S S  S S  S S  S S S  S S S  S S S S
|-12-0-14-0-15-0-14-0-0-10-0-0-12-0-0-0-|
|---------------------------------------|
|---------------------------------------|
|---------------------------------------|
|---------------------------------------|
|---------------------------------------|
|
|  PM-------|              PM|      PM|
|  E    E    E    Q        S S  E   S S
|---------------------------------------|
|---------------------------------------|
|-----------------7-------------7-------|
|-----------------7-------------7-------|
|-----------------5--------5-5--5---5-5-|
|--3----5----7--------------------------|


   S S  S S  S S  S S S  S S S  S S S S    S S  S S  S S  S S S  S S S  Q
|-12-0-14-0-15-0-17-0-0-14-0-0-15-0-0-0-|-12-0-14-0-15-0-14-0-0-10-0-0-12---|
|---------------------------------------|-----------------------------------|
|---------------------------------------|-----------------------------------|
|---------------------------------------|-----------------------------------|
|---------------------------------------|-----------------------------------|
|---------------------------------------|-----------------------------------|
|
|       PM        PM-------|               PM-------|
|  E    E    E    E   E    E    E   E      E    E    E    Q        Q      E
|---------------------------------------|-----------------------------------|
|---------------------------------------|-----------------------------------|
|--9---------9------------------7-------|-----------------7--------7------9-|
|--9---------9----------------------9---|-----------------7--------7------9-|
|--7----7----7----7--------7------------|-----------------5--------5------7-|
|---------------------8-----------------|--3----5----7----------------------|


   +W
|-(12)----|
|---------|
|---------|
|---------|
|---------|
|---------|
|
|  +W
|---------|
|---------|
|--(9)----|
|--(9)----|
|--(7)----|
|---------|


                   PM----------|      PM|
  W              S S S S S S S S  S S S S  S S  S S
|-------------|-------------------------------------|
|-------------|-------------------------------------|
|-------------|-------------------------------------|
|-------------|-12p9-9-9-9-9-9-9-12p9-9-9-11p9-14p9-|
|-------------|-------------------------------------|
|-------------|-------------------------------------|
|
|                  PM----------|      PM|
| H    E Q  E    S S S S S S S S  S S S S  S S  S S
|-------------|-------------------------------------|
|-------------|-------------------------------------|
|--------9--7-|-------------------------------------|
|--------9--7-|-------------------------------------|
|--------7--5-|-10p7-7-7-7-7-7-7-10p7-7-7--9p7-12p7-|
|-------------|-------------------------------------|


       PM------------|
   S S S S S S S S S S E. E.
|-----------------------------|
|-----------------------------|
|-----------------------------|
|-12p9-9-9-9-9-9-9-9-9-5--7---|
|-----------------------------|
|-----------------------------|
|
|      PM------------|
|  S S S S S S S S S S E. E.
|-----------------------------|
|-----------------------------|
|----------------------5--7---|
|----------------------5--7---|
|-10p7-7-7-7-7-7-7-7-7-3--5---|
|-----------------------------|


   W                          S  S  S  S  S  S  S  S  S  S  S   S  S  S   S  S
|--------------------------|---------------------------------------------------|
|--------------------------|-----------------------------------18-20-18--------|
|--------------------------|-------------------------17-19-20------------20-19-|
|--------------------------|-------------15-17-18-20---------------------------|
|-15-----------------------|-13-15-17-18---------------------------------------|
|--------------------------|---------------------------------------------------|
|
|    PM--------|   PM|              PM------------------|
|  E S S S S S S E S S E E    E     S  S  S  S  S  S  S  S  E.        E.
|--------------------------|---------------------------------------------------|
|--------------------------|---------------------------------------------------|
|--5-------------5-----3-3-|--5-----------------------------8---------3--------|
|--5-------------5-----3-3-|--5-----------------------------8---------3--------|
|--3-3-3-3-3-3-3-3-3-3-1-1-|--3-----3--3--3--3--3--3--3--3--6---------1--------|
|--------------------------|---------------------------------------------------|


   H             E  S  S  S  S  S  S
|------------------------------------|
|------------------13-13-15-13-16-13-|
|-17---------------------------------|
|------------------------------------|
|------------------------------------|
|------------------------------------|
|
|    PM--------|    PM------------|
|  E S S S S S S E  S  S  S  S  S  S
|------------------------------------|
|------------------------------------|
|--5-------------8-------------------|
|--5-------------8-------------------|
|--3-3-3-3-3-3-3-6--6--6--6--6--6--6-|
|------------------------------------|


   S  S  S  S  S  S  S  S  S  S  S  S  S  S  S  S
|-------------------------15-13-11-10-15-13-11-10-|
|-18-16-15-13-18-16-15-13-------------------------|
|-------------------------------------------------|
|-------------------------------------------------|
|-------------------------------------------------|
|-------------------------------------------------|
|
|        PM------------|         PM------------|
|  E     S  S  S  S  S  S  E     S  S  S  S  S  S
|-------------------------------------------------|
|-------------------------------------------------|
|-10----------------------13----------------------|
|-10----------------------13----------------------|
|--8-----8--8--8--8--8--8-11----11-11-11-11-11-11-|
|-------------------------------------------------|


   S  S  S  S  S  S  S  S  S  S  S  S  S  S  S  S
|-17-15-13-10-17-15-13-10-17-15-13-10-17-15-13-10-|
|-------------------------------------------------|
|-------------------------------------------------|
|-------------------------------------------------|
|-------------------------------------------------|
|-------------------------------------------------|
|
|        PM------------------------------------|
|  E     S  S  E     S  S  E     S  S  S  S  S  S
|-------------------------------------------------|
|-------------------------------------------------|
|--7----------------------------------------------|
|--7----------------------------------------------|
|--5-----5--5--5-----5--5--5-----5--5--3--3--3--3-|
|-------------------------------------------------|


   S  S  S  S  S  S  S  S  S  S  S   S  S  S   S  S
|-17-15-13-10-17-15-13-10-17-15-13--10-17-15--13-10-|
|---------------------------------------------------|
|---------------------------------------------------|
|---------------------------------------------------|
|---------------------------------------------------|
|---------------------------------------------------|
|
|        PM------------------|
|  E     S  S  E     S  S  S  S  E.        E.
|---------------------------------------------------|
|---------------------------------------------------|
|--7-----------------------------3---------5--------|
|--7-----------------------------3---------5--------|
|--5-----5--5--5-----5--5--5--5--1---------3--------|
|---------------------------------------------------|


  E  S  S  S  S  S  S  S  S  S S  S  S  S  S
|---10-10-12-10-13-10-12-10-10-8-10-10-10-10-|
|--------------------------------------------|
|--------------------------------------------|
|--------------------------------------------|
|--------------------------------------------|
|--------------------------------------------|
|
|    PM---------------------------------------
| E  S  S  E     S  S  E     S S  E     S  S
|--------------------------------------------|
|--------------------------------------------|
|-7------------------------------------------|
|-7------------------------------------------|
|-5--5--5--5-----5--5--5-----5-5--3-----3--3-|
|--------------------------------------------|


   S  S  S  S  S  S  S  S  S  S  S  S  S  S  S  S
|-22-20-18-17--------------------------------------|
|-------------20-18-17-15-18-17-15-13--------------|
|-------------------------------------15-14-12-10--|
|--------------------------------------------------|
|--------------------------------------------------|
|--------------------------------------------------|
|
|-------------------------------------------|
|  E     E     E     S  E     E     S  E     E
|--------------------------------------------------|
|--------------------------------------------------|
|--------------------------------------------------|
|--------------------------------------------------|
|--5-----5-----5-----5--5-----5-----5--5-----5-----|
|--------------------------------------------------|


   |-------3--------|  |--------3---------|  |--------3---------|  |------3-------|
   S  S  S  S  S    S  S  S    S  S  S    S  S  S    S  S  S    S  S  S  S  S  S  S
|------------------14-15-14---12-14-15---17-19-17---15------------15-14-12----------|
|-17-15-13-15-17---------------------------------------19-17---15----------15-13-12-|
|--9--------------------------------------------------------------------------------|
|-----------------------------------------------------------------------------------|
|-----------------------------------------------------------------------------------|
|-----------------------------------------------------------------------------------|
|
|  PM--------------------------------------------------------|
|  E        S    S     S    S     S    S     S    S     S    S     E        E
|-----------------------------------------------------------------------------------|
|-----------------------------------------------------------------------------------|
|------------------------------------------------------------------7--------7-------|
|------------------------------------------------------------------7--------7-------|
|------------------------------------------------------------------5--------5-------|
|--0--------0----0-----0----0-----0----0-----0----0-----0----0----------------------|


   |------3-------| |------3------| |------3------| |----3----|
   S  S S  S  S   S S S   S S S   S S S   S S S   S S S S S S S
|-12-10-8-----------8-7---5-------------------------------5-7-8-|
|---------12-10---8---------8-7---5-----------------5-7-8-------|
|-------------------------------------------4-5---7-------------|
|-----------------------------------4-5---7---------------------|
|---------------------------------------------------------------|
|---------------------------------------------------------------|
|
|  PM-------------------------------------------|
|  E       S    S   S   S   S   S   S   S   S   S   E     E
|---------------------------------------------------------------|
|---------------------------------------------------------------|
|---------------------------------------------------5-----7-----|
|---------------------------------------------------5-----7-----|
|---------------------------------------------------3-----5-----|
|--0-------0----0---0---0---0---0---0---0---0---0---------------|


         .5/         .5/
                                |---3---|
   S  S  E        E    E        S  S    S  S  S  S  S  S  S
|-----------------------------------------------12-14-15-17-|
|-17-17-17-------17---17-------12-13---12-13-15-------------|
|-----------------------------------------------------------|
|-----------------------------------------------------------|
|-----------------------------------------------------------|
|-----------------------------------------------------------|
|
|  PM----------------------------------------|
|  E     S     S  S S  S     S  S    S     S  S  E     E
|-----------------------------------------------------------|
|-----------------------------------------------------------|
|------------------------------------------------7-----7----|
|------------------------------------------------7-----7----|
|------------------------------------------------5-----5----|
|--0-----0-----0--0-0--0-----0--0----0-----0--0-------------|


   |------3-------|  |------3-------|  |------3-------|  |------3-------|
   S  S  S  S  S  S  S  S  S  S  S  S  S  S  S  S  S  S  S  S  S  S  S  S
|-19-17-15----------17-15-14----------15-14-12----------17-15-14-----------|
|----------19-17-15----------17-15-13----------15-13-12----------17-15-13--|
|--------------------------------------------------------------------------|
|--------------------------------------------------------------------------|
|--------------------------------------------------------------------------|
|--------------------------------------------------------------------------|
|
|  Q                 Q                 Q                 Q
|--------------------------------------------------------------------------|
|--------------------------------------------------------------------------|
|--9-----------------7-----------------5-----------------2-----------------|
|--9-----------------7-----------------5-----------------2-----------------|
|--7-----------------5-----------------3-----------------0-----------------|
|--------------------------------------------------------------------------|


  |-------3--------|  |--------3---------|  |--------3---------|  |------3-------|
  S  S  S  S  S    S  S  S    S  S  S    S  S  S    S  S  S    S  S  S  S  S  S  S
|----------------------------------------------------------------------------------|
|----------------------------------------------------------------------------------|
|-9-11-12-11-12---14-12-14---16-14-16---17-16-17---19-17-19---21-19-17-16-17-16-14-|
|----------------------------------------------------------------------------------|
|----------------------------------------------------------------------------------|
|----------------------------------------------------------------------------------|
|
| PM--------------------------------------------------------|
| E        S    S     S    S     S    S     S    S     S    S     E        E
|----------------------------------------------------------------------------------|
|----------------------------------------------------------------------------------|
|-----------------------------------------------------------------7--------7-------|
|-----------------------------------------------------------------7--------7-------|
|-----------------------------------------------------------------5--------5-------|
|-0--------0----0-----0----0-----0----0-----0----0-----0----0----------------------|


   |-------3--------| |--------3---------|  |-------3-------| |----3----|
   S  S  S  S  S    S S  S    S  S  S    S  S  S   S  S S   S S S S S S S
|-------------------------------------------------------------------------|
|-------------------------------------------------------------------------|
|-16-14-12-14-12---11-9-11---12-11-12---14-12-11---9-11-9---7-9-7-5-7-5-4-|
|-------------------------------------------------------------------------|
|-------------------------------------------------------------------------|
|-------------------------------------------------------------------------|
|
|  PM-----------------------------------------------------|
|  E        S    S    S    S     S    S     S    S    S   S   E     E
|-------------------------------------------------------------------------|
|-------------------------------------------------------------------------|
|-------------------------------------------------------------5-----7-----|
|-------------------------------------------------------------5-----7-----|
|-------------------------------------------------------------3-----5-----|
|--0--------0----0----0----0-----0----0-----0----0----0---0---------------|


   E  S  S  S   S  S  S  E  S  S  S  S  S  S
|--------------------14-19-19-20-19-17-15-14-|
|-----------------15-------------------------|
|--------------16----------------------------|
|----------16--------------------------------|
|-14-14-17-----------------------------------|
|--------------------------------------------|
|
|  q        H.
|--------------------------------------------|
|--------------------------------------------|
|--------------------------------------------|
|--2-----------------------------------------|
|--2-----------------------------------------|
|--0-----------------------------------------|


   S  S  S  S  S  S  S  S  S  S  S  S  S  S  S  S
|-17-15-14-17-15-14-------14----------------------|
|-------------------17-15----17-15-13-17-15-13-12-|
|-------------------------------------------------|
|-------------------------------------------------|
|-------------------------------------------------|
|-------------------------------------------------|
|
|  Q           Q           Q           Q
|-------------------------------------------------|
|-------------------------------------------------|
|--2-----------4-----------5-----------7----------|
|--2-----------4-----------5-----------7----------|
|--0-----------2-----------3-----------5----------|
|-------------------------------------------------|


   Q.            Q.            Q          +W
|-20b22---------22b24---------24b26====|=(24)----------------------|
|--------------------------------------|---------------------------|
|--------------------------------------|---------------------------|
|--------------------------------------|---------------------------|
|--------------------------------------|---------------------------|
|--------------------------------------|---------------------------|
|
|  PM-------|           PM--|              PM-----|       PM--|
|  S    S S S E  E    S S S S  E     E     S  S S S E E S S S S Q
|--------------------------------------|---------------------------|
|--------------------------------------|---------------------------|
|--------------------------------------|---------------------------|
|-------------5--5-------------9-----9-|------------5-5---------9--|
|--3----3-3-3-3--3------7-7-7--7-----7-|---3--3-3-3-3-3---7-7-7-7--|
|--------------------------------------|---------------------------|


  PM----|       PM--|       PM----|     PM----|
  S S S S E E S S S S E E   S S S S E E S S S S Q
|-------------------------|------------------------|
|-------------------------|------------------------|
|-------------------------|---------------------8--|
|---------5-----------9-5-|---------5-----------8--|
|-3-3-3-3---7---7-7-7-----|-3-3-3-3---7-7-7-7-7-6--|
|-------------------------|------------------------|
|
| PM----|       PM--|       PM----|     PM----|
| S S S S E E S S S S E E   S S S S E E S S S S Q
|-------------------------|------------------------|
|-------------------------|------------------------|
|-------------------------|---------------------8--|
|---------5-5---------9-9-|---------5-5---------8--|
|-3-3-3-3-3-3---7-7-7-7-7-|-3-3-3-3-3-3-7-7-7-7-6--|
|-------------------------|------------------------|


  PM----|       PM--|       PM----|       PM--|
  S S S S E E S S S S E E   S S S S E E S S S S  Q
|-------------------------|--------------------------|
|-------------------------|--------------------------|
|-------------------------|---------------------9 --|
|---------5-----------9-5-|---------5----------------|
|-3-3-3-3---7---7-7-7-----|-3-3-3-3---7---7-7-7------|
|-------------------------|--------------------------|
|
| PM----|       PM--|       PM----|       PM--|
| S S S S E E S S S S E E   S S S S E E S S S S  Q
|-------------------------|--------------------------|
|-------------------------|--------------------------|
|-------------------------|--------------------------|
|---------5-5---------9-9-|---------5-5----------9---|
|-3-3-3-3-3-3---7-7-7-7-7-|-3-3-3-3-3-3---7-7-7--7---|
|-------------------------|--------------------------|


  PM----|       PM--|        PM---------------------------|
                             |------3-------| |-----3------|
  S S S S E E S S S S E E    E  E  E  E  E  E E  E  E E E  E
|-------------------------|----------------------------------|
|-------------------------|----------------------------------|
|-------------------------|----------------------------------|
|---------5-----------9-5-|----------------------------------|
|-3-3-3-3---7---7-7-7-----|-12-14-15-10-12-14-9-10-12-7-9-10-|
|-------------------------|----------------------------------|
|
| PM----|       PM--|        PM---------------------------|
|                            |------3-------| |-----3------|
| S S S S E E S S S S E E    E  E  E  E  E  E E  E  E E E  E
|-------------------------|----------------------------------|
|-------------------------|----------------------------------|
|-------------------------|----------------------------------|
|---------5-5---------9-9-|----------------------------------|
|-3-3-3-3-3-3---7-7-7-7-7-|-12-14-15-10-12-14-9-10-12-7-9-10-|
|-------------------------|----------------------------------|


                                   1.,3.
    |--3--|  |--3--|  |-3--|       |--3--|  |--3--| |--3--|
    E  E  E  E  E  E  E E  E  Q    E  E  E  E  E  E E  E  E Q
||-------------------------------|------------------------------||
||o---------10-------------------|---------10------------------o||
||--9-11-12----12-11----9-11-12--|-9-11-12----12-11-9-------9---||
||-------------------12----------|--------------------10-12-----||
||o------------------------------|-----------------------------o||
||-------------------------------|------------------------------||
|
|   H                 H            H                Q       Q
||-------------------------------|------------------------------||
||o------------------------------|-----------------------------o||
||--9-----------------5----------|-9----------------5-------7---||
||--9-----------------5----------|-9----------------5-------7---||
||o-7-----------------3----------|-7----------------3-------5--o||
||--7-----------------3----------|-7----------------3-------5---||


  2.,4.
                            3/4
  |--3--|  |--3--|
  E  E  E  E  E  E  Q   Q    Q  Q  E  S S
|--------------------------|---------12-0-|
|---------10---------------|--------------|
|-9-11-12----12-11-12--11--|-9--7--9------|
|--------------------------|--------------|
|--------------------------|--------------|
|--------------------------|--------------|
|
| H                 Q   Q    Q  Q  Q
|--------------------------|--------------|
|--------------------------|--------------|
|-9----------------12--11--|-9--7--9------|
|-9----------------12--11--|-9--7--9------|
|-7----------------10---9--|-7--5--7------|
|-7----------------10---9--|--------------|


 4/4
   S S  S S  S S S  S S S  S S S S  S S
|-14-0-15-0-17-0-0-14-0-0-15-0-0-0-12-0-|
|---------------------------------------|
|---------------------------------------|
|---------------------------------------|
|---------------------------------------|
|---------------------------------------|
|
|  W
|---------------------------------------|
|---------------------------------------|
|---------------------------------------|
|---------------------------------------|
|---------------------------------------|
|---------------------------------------|


   S S  S S  S  S S  S  S S  S  S S S  S S
|-14-0-15-0-14--0-0-10--0-0-12--0-0-0-12-0--|
|-------------------------------------------|
|-------------------------------------------|
|-------------------------------------------|
|-------------------------------------------|
|-------------------------------------------|
|
|  Q         e.      e.      Q.
|-------------------------------------------|
|-------------------------------------------|
|------------9-------7-------9--------------|
|------------9-------7-------9--------------|
|------------7-------5-------7--------------|
|-------------------------------------------|


                                 |--3--|  |--3--|
   S  S  S S  S S S  S S S  S S  S  S  S  S  S  S
|-14--0-15-0-17-0-0-14-0-0-15-0-19-17-15----------|
|----------------------------------------19-17-15-|
|-------------------------------------------------|
|-------------------------------------------------|
|-------------------------------------------------|
|-------------------------------------------------|
|
|  H.                            E        E
|-------------------------------------------------|
|-------------------------------------------------|
|--------------------------------4----------------|
|--------------------------------4----------------|
|--------------------------------2----------------|
|-------------------------------------------------|


   |--3--|  |--3--|  |--3--|  |--3--|
   S  S  S  S  S  S  S  S  S  S  S  S  H
|-------------------------------------------*|
|-------------------------------------------*|
|-17-16-14----------------------------------*|
|----------17-16-14-------------------------*|
|-------------------17-15-14----------------*|
|----------------------------17-15-14-12----*|
|
|  H                                   H
|-------------------------------------------*|
|-------------------------------------------*|
|-------------------------------------------*|
|--------------------------------------2----*|
|--------------------------------------2----*|
|--------------------------------------0----*|




--------------------------------------------------------------------------------


Duration Legend
---------------
W - whole; H - half; Q - quarter; E - 8th; S - 16th; T - 32nd; X - 64th; a - acciaccatura
+ - note tied to previous; . - note dotted; .. - note double dotted
Uncapitalized letters represent notes that are staccato (1/2 duration)
Irregular groupings are notated above the duration line
Duration letters will always appear directly above the note/fret number it represents the
duration for.  Duration letters with no fret number below them represent rests.  Multi-
bar rests are notated in the form Wxn, where n is the number of bars to rest for.  Low
melody durations appear below the staff

Tablature Legend
----------------
 h   - hammer-on
 p   - pull-off
 b   - bend
 pb  - pre-bend
 r   - bend release (if no number after the r, then release immediately)
 /  - slide into or out of (from/to "nowhere")
 s   - legato slide
 S   - shift slide
 - natural harmonic
n   - artificial harmonic
n(n) - tapped harmonic
 ~   - vibrato
 tr  - trill
 T   - tap
 TP  - trem. picking
 PM  - palm muting

/  - tremolo bar dip; n = amount to dip
 
  - tremolo bar down
 n/  - tremolo bar up
/n  - tremolo bar inverted dip
 =   - hold bend; also acts as connecting device for hammers/pulls
 <> - volume swell (louder/softer)
 x   - on rhythm slash represents muted slash
 o   - on rhythm slash represents single note slash

Misc Legend
-----------
 |  - bar
||  - double bar
||o - repeat start
o|| - repeat end
*|  - double bar (ending)
 :  - bar (freetime)
 $  - Segno
 &  - Coda
Tempo markers -  = BPM(8/16=s8/s16), where s8 = swing 8ths, s16 = swing 16ths


_______________________________________________________
Contribuição: Fabio Frohlich([email protected])
		  
E-Chords has the most powerful ukulele chords dictionary on the internet. You can enter any chord and even choose the pitch of each string.

Full key step upFull key step up
Half key step upHalf key step up
Half key step downHalf key step down
Full key step downFull key step down
auto scroll beats size up size down change color
tab show chords e-chords YouTube Clip e-chords hide all tabs e-chords go to top tab

share