Blink 182

home > Blink 182

First Date (guitarra) Ukulele tab

Blink 182

Difficulty: ExpertExpert

by VELHO

tuner correct add songbook print version text version save to e-mail
chordsukulelecavacokeyboardtabbassdrumsharmonicsflute Guitar Pro
chords

First Date (guitarra)

  		Intro: 
   C         D5        F         G  
e|-0------------------------------------------| 
b|---1---1---3-1---1---3-1---1---3-1---0------| 
G|-----0---0-----0---0-----0---0-----0---0----| 
D|--------------------------------------------|   
A|--------------------------------------------| 
E|--------------------------------------------| 

   C         D5        F         G         C   <---Começa a música 
e|-0------------------------------------------| 
b|---1---1---3-1---1---3-1---1---3-1---0---1--| 
G|-----0---0-----0---0-----0---0-----0---0----| 
D|--------------------------------------------|   
A|--------------------------------------------| 
E|--------------------------------------------| 

C  
In the car, I just can't wait 
G                     F  
To pick you up on our very first date 
C  
Is it cool if I hold your hand 
G                F  
Is it wrong if I think it's lame to dance 
C  
Do you like my stupid hair ? 
G                        F  
Would you guess that I didn't know what to wear ? 
C  
I'm just scared of what you think 
G                        F  
You make me nervous so I really can't eat 

   | 
   |C  
   |   Let's go 
   |B(#5)                  
   |   Don't way        
   |A5           F  
   |This night is almost over  
   |C  
   |   Honest 
   |B(#5) 
   |   Let's make 
   |A5         F    G  
   |This night last forever 
   |       C       B(#5) 
   |Forever and ever 
   |A5               F     G  
   |Let's make this last forever 
   |C       B(#5) 
   |Forever and ever 
   |A5               F     G  
   |Let's make this last forever      

   C         D5        F         G  
e|-0------------------------------------------| 
b|---1---1---3-1---1---3-1---1---3-1---0------| 
G|-----0---0-----0---0-----0---0-----0---0----| 
D|--------------------------------------------|   
A|--------------------------------------------| 
E|--------------------------------------------| 

   C         D5        F         G         C   <---Começa a música 
e|-0------------------------------------------| 
b|---1---1---3-1---1---3-1---1---3-1---0---1--| 
G|-----0---0-----0---0-----0---0-----0---0----| 
D|--------------------------------------------|   
A|--------------------------------------------| 
E|--------------------------------------------| 


C  
When you smile I melt inside 
G 			F  
I'm not worthy for a minute of your time 
C  
I really wish it was only me and you 
G 		   F  
I'm jealous of everybody in the room 
C  
please don't look at me with those eyes 
G 			F  
please don't hint that you're capable of lies 
C  
I dread the tought of our very first kiss 
G 		F  
I target that I'm probably gonna miss 

   | 
   |C  
   |   Let's go 
   |B(#5)                  
   |   Don't way        
   |A5           F  
   |This night is almost over  
   |C  
   |   Honest 
   |B(#5) 
   |   Let's make 
   |A5         F    G  
   |This night last forever 
   |       C       B(#5) 
   |Forever and ever 
   |A5               F     G  
   |Let's make this last forever 
   |C       B(#5) 
   |Forever and ever 
   |A5               F     G        (C  *E5 *F  *G ) 2x  
   |Let's make this last forever      

    
e|---------------------------------------------------------------| 
b|---------------------------------------------------------------| 
G|-5-5-5-5-5-5-5-9-9-9-9-5-5-5-10-10-10-10-5-5-5-7-7-7-7-7-7-7---| 
D|---------------------------------------------------------------|  4x  
A|-3-3-3-3-3-3-3-7-7-7-7-3-3-3-8--8--8--8--3-3-3-5-5-5-5-5-5-5---| 
E|---------------------------------------------------------------|  

   | 
   |C  
   |   Let's go 
   |B(#5)                  
   |   Don't way        
   |A5           F  
   |This night is almost over  
   |C  
   |   Honest 
   |B(#5) 
   |   Let's make 
   |A5         F    G  
   |This night last forever 
   |       C       B(#5) 
   |Forever and ever 
   |A5               F     G  
   |Let's make this last forever 
   |C       B(#5) 
   |Forever and ever 
   |A5               F     G  
   |Let's make this last forever 
   |C       B(#5) 
   |Forever and ever 
   |A5               F     G      C  <-----Deixa soar 
   |Let's make this last forever  

!A música para e volta assim! 

e|---------------------------------------------------| 
b|---------------------------------------------------| 
G|-5-9-9-9-9-5-5-5-10-10-10-10-5-5-5-7-7-7-7-7-7-7---| 
D|---------------------------------------------------|  1x  
A|-3-7-7-7-7-3-3-3-8--8--8--8--3-3-3-5-5-5-5-5-5-5---| 
E|---------------------------------------------------| 
    
e|---------------------------------------------------------------| 
b|---------------------------------------------------------------| 
G|-5-5-5-5-5-5-5-9-9-9-9-5-5-5-10-10-10-10-5-5-5-7-7-7-7-7-7-7---| 
D|---------------------------------------------------------------|  3x  
A|-3-3-3-3-3-3-3-7-7-7-7-3-3-3-8--8--8--8--3-3-3-5-5-5-5-5-5-5---| 
E|---------------------------------------------------------------| 

   | 
   |C  
   |   Let's go 
   |B(#5)                  
   |   Don't way        
   |A5           F  
   |This night is almost over  
   |C  
   |   Honest 
   |B(#5) 
   |   Let's make 
   |A5         F    G  
   |This night last forever 
   |       C       B(#5) 
   |Forever and ever 
   |A5               F     G  
   |Let's make this last forever 
   |C       B(#5) 
   |Forever and ever 
   |A5               F     G  
   |Let's make this last forever 
   |C       B(#5) 
   |Forever and ever 
   |A5               F     G      C  <-----Deixa soar 
   |Let's make this last forever  

                                  *Uma oitava abaixo! 
VELHO BANDA VM's
	  
E-Chords has the most powerful ukulele chords dictionary on the internet. You can enter any chord and even choose the pitch of each string.

Full key step upFull key step up
Half key step upHalf key step up
Half key step downHalf key step down
Full key step downFull key step down
Search Paypal
auto scroll beats size up size down change color
tab show chords e-chords YouTube Clip e-chords hide all tabs e-chords go to top tab