Black Sabbath

home > Black Sabbath

Dear Father Ukulele tab

Black Sabbath

Difficulty: nolevelnolevel

by jov%2Dcorrea

tuner correct add songbook print version text version save to e-mail
chordsukulelecavacokeyboardtabbassdrumsharmonicsflute Guitar Pro
chords

Dear Father

  		
Tuning: Eb Ab Db Gb Bb Eb 







---------------------------------------------------------------| 
---------------------------------------------------------------| 
---------------------------------------------------------------| 
------------3-----------------------------3--------------------| 
------------1-------------4-5-------------1------------4-3-----| 
-0--0-0-3-0-----0-5-0-3-0-2-3--0--0-0-3-0----0-5-0-3-0-2-1-----| 
 *  * * * *  ~  * * * * *      *  * * * *  ~  * * * * * 
                                

---------------------------------------------------------------| 
---------------------------------------------------------------| 
---------------------------------------------------------------| 
------------3-----------------------------3--------------------| 
------------1-------------4-5-------------1-------------4-3----| 
-0--0-0-3-0-----0-5-0-3-0-2-3--0--0-0-3-0-----0-5-0-3-0-2-1----| 
 *  * * * *  ~  * * * * *      *  * * * *  ~  * * * * * 





0:15 

----------------------------------------------------------| 
----------------------------------------------------------| 
----------------------------------------------------------| 
----------------------------------^-------^---------------| 
---------------------------------5-------4-------3---4-5--| 
-0--0--3--5--6~--0--3--5--0--0-0-3-0-0-0-2-0-0-0-1-0-2-3--| 
                          *  * *     * *     * *   * 

----------------------------------------------------------| 
----------------------------------------------------------| 
----------------------------------------------------------| 
----------------------------------^-------^---------------| 
---------------------------------5-------4-------3---4-5--| 
-0--0--3--5--6~--0--3--5--0--0-0-3-0-0-0-2-0-0-0-1-0-2-3--| 
                          *  * *     * *     * *   * 

----------------------------------------------------------| 
----------------------------------------------------------| 
----------------------------------------------------------| 
----------------------------------^-------^---------------| 
---------------------------------5-------4-------3---4-5--| 
-0--0--3--5--6~--0--3--5--0--0-0-3-0-0-0-2-0-0-0-1-0-2-3--| 
                          *  * *     * *     * *   * 

----------------------------------------------------------| 
----------------------------------------------------------| 
----------------------------------------------------------| 
----------------------------------^-------^---------------| 
---------------------------------5-------4-------3---4-5--| 
-0--0--3--5--6~--0--3--5--0--0-0-3-0-0-0-2-0-0-0-1-0-2-3--| 
                          *  * *     * *     * *   * 






0:42 


-------0-----------------0-----------------0----------------0----------| 
-----------0-----------0-----0----------------0-----------0-----0------| 
-----5-------5-------5---------5---------5------5-------2---------2----| 
---7-----------7---6-------------6-----7----------7---3-------------3--| 
-0-----------------------------------0---------------------------------| 
-----------------------------------------------------------------------| 


-------0-----------------0-----------------0----------------0----------| 
-----------0-----------0-----0----------------0-----------0-----0------| 
-----5-------5-------7---------7---------5------5-------2---------2----| 
---7-----------7---6-------------6-----7----------7---3-------------3--| 
-0-----------------------------------0---------------------------------| 
-----------------------------------------------------------------------| 






1:11 

----------------------------------------------------------------| 
----------------------------------------------------------------| 
----------------------------------------------------------------| 
--------^-------^-----------------------^-------^---------------| 
-------5-------4-------3---4-5---------5-------4-------3---4-5--| 
0--0-0-3-0-0-0-2-0-0-0-1-0-2-3--0--0-0-3-0-0-0-2-0-0-0-1-0-2-3--| 
*  * *     * *     * *   *      *  * *     * *     * *   *       

----------------------------------------------------------------| 
----------------------------------------------------------------| 
----------------------------------------------------------------| 
--------^-------^-----------------------^-------^---------------| 
-------5-------4-------3---4-5---------5-------4-------3---4-5--| 
0--0-0-3-0-0-0-2-0-0-0-1-0-2-3--0--0-0-3-0-0-0-2-0-0-0-1-0-2-3--| 
*  * *     * *     * *   *      *  * *     * *     * *   *    





1:25 

----------------------------------------------------------| 
----------------------------------------------------------| 
----------------------------------------------------------| 
----------------------------------^-------^---------------| 
---------------------------------5-------4-------3---4-5--| 
-0--0--3--5--6~--0--3--5--0--0-0-3-0-0-0-2-0-0-0-1-0-2-3--| 
                          *  * *     * *     * *   * 

----------------------------------------------------------| 
----------------------------------------------------------| 
----------------------------------------------------------| 
----------------------------------^-------^---------------| 
---------------------------------5-------4-------3---4-5--| 
-0--0--3--5--6~--0--3--5--0--0-0-3-0-0-0-2-0-0-0-1-0-2-3--| 
                          *  * *     * *     * *   * 

----------------------------------------------------------| 
----------------------------------------------------------| 
----------------------------------------------------------| 
----------------------------------^-------^---------------| 
---------------------------------5-------4-------3---4-5--| 
-0--0--3--5--6~--0--3--5--0--0-0-3-0-0-0-2-0-0-0-1-0-2-3--| 
                          *  * *     * *     * *   * 

----------------------------------------------------------| 
----------------------------------------------------------| 
----------------------------------------------------------| 
----------------------------------^-------^---------------| 
---------------------------------5-------4-------3---4-5--| 
-0--0--3--5--6~--0--3--5--0--0-0-3-0-0-0-2-0-0-0-1-0-2-3--| 
                          *  * *     * *     * *   * 




1:52 

-------0-----------------0-----------------0----------------0----------| 
-----------0-----------0-----0----------------0-----------0-----0------| 
-----5-------5-------5---------5---------5------5-------2---------2----| 
---7-----------7---6-------------6-----7----------7---3-------------3--| 
-0-----------------------------------0---------------------------------| 
-----------------------------------------------------------------------| 


-------0-----------------0-----------------0----------------0----------| 
-----------0-----------0-----0----------------0-----------0-----0------| 
-----5-------5-------7---------7---------5------5-------2---------2----| 
---7-----------7---6-------------6-----7----------7---3-------------3--| 
-0-----------------------------------0---------------------------------| 
-----------------------------------------------------------------------| 






2:20 

----------------------------------------------------------------| 
----------------------------------------------------------------| 
----------------------------------------------------------------| 
--------^-------^-----------------------^-------^---------------| 
-------5-------4-------3---4-5---------5-------4-------3---4-5--| 
0--0-0-3-0-0-0-2-0-0-0-1-0-2-3--0--0-0-3-0-0-0-2-0-0-0-1-0-2-3--| 
*  * *     * *     * *   *      *  * *     * *     * *   *       

----------------------------------------------------------------| 
----------------------------------------------------------------| 
----------------------------------------------------------------| 
--------^-------^-----------------------^-------^---------------| 
-------5-------4-------3---4-5---------5-------4-------3---4-5--| 
0--0-0-3-0-0-0-2-0-0-0-1-0-2-3--0--0-0-3-0-0-0-2-0-0-0-1-0-2-3--| 
*  * *     * *     * *   *      *  * *     * *     * *   *    







2:34 


---------------------------------------------------------------------------| 
---------------------------------------------------------------------------| 
---------------------------------------------------------------------------| 
------9---3-----------9---3---4-5-4---------9---3-----------9---3---4-5-4--| 
-----/7---1----------/7---1---2-3-2--------/7---1----------/7---1---2-3-2--| 
-0---------------0---------------------0--------------0--------------------| 
        \               \                     \               \           


--------------------------------------| 
--------------------------------------| 
--------------------------------------| 
-5-----5--9--7---7------12-11--9--7---| 
-3-----3--7--5---5------10--9--7--5---| 
--------------------0-0---------------| 
              ~   ~ * * 






2:55 

            )~                        )~ 
----------12------------------------12----------------| 
----------15------------------------15----------------| 
------------------------------------------------------| 
-----------------------7-------------------------5----| 
-----------------------5-------------------------3----| 
-0-0-0-0--------0--0-0------0-0-0-0-------0--0-0------| 
 * * * *        *  * *  ~   * * * *       *  * *  ~ 

            )~                        )~ 
----------12------------------------12----------------| 
----------15------------------------15----------------| 
------------------------------------------------------| 
-----------------------7-------------------------3----| 
-----------------------5-------------------------1----| 
-0-0-0-0--------0--0-0------0-0-0-0-------0--0-0------| 
 * * * *        *  * *  ~   * * * *       *  * *    





3:09 

------------------------------------------------------| 
------------------------------------------------------| 
------------------------------------------------------| 
-----------9-----------7--------------9-----------5---| 
-----------7-----------5--------------7-----------3---| 
-0-0-0-0--------0--0-0------0-0-0-0-------0--0-0------| 
 * * * *    ~   *  * *  ~   * * * *    ~  *  * *   ~ 


------------------------------------------------------| 
------------------------------------------------------| 
------------------------------------------------------| 
-----------9-----------7--------------9-----------3---| 
-----------7-----------5--------------7-----------1---| 
-0-0-0-0--------0--0-0------0-0-0-0-------0--0-0------| 
 * * * *    ~   *  * *  ~   * * * *    ~  *  * *      

------------------------------------------------------| 
------------------------------------------------------| 
------------------------------------------------------| 
-----------9-----------7--------------9-----------5---| 
-----------7-----------5--------------7-----------3---| 
-0-0-0-0--------0--0-0------0-0-0-0-------0--0-0------| 
 * * * *    ~   *  * *  ~   * * * *    ~  *  * *   ~ 


--------------------------------------------------------| 
--------------------------------------------------------| 
--------------------------------------------------------| 
-----------9-----------7--------------9-----------3-----| 
-----------7-----------5--------------7-----------1--0-0| 
-0-0-0-0--------0--0-0------0-0-0-0-------0--0-0--------| 
 * * * *    ~   *  * *  ~   * * * *    ~  *  * *     * * 


------------------------------------------| 
------------------------------------------| 
------------------------------------------| 
-5---5---5---5--9-7--7------12-11--9--7---| 
-3---3---3---3--7-5--5------10--9--7--5---| 
------------------------0-0---------------| 
  ~   ~   ~             * *          



--------------------------| 
--------------------------| 
--------------------------| 
-------------5---4--------| 
-------------3---2--------| 
-0------------------------| 







3:46 


----------------------------------------------------------------------| 
----------------------------------------------------------------------| 
----------------------------------------------------------------------| 
-----222-----222-----222------^---------222-----222-----222------^----| 
-----------------------------2-0--------------------------------2-0---| 
-0-0-----0-0-----0-0-----0-0-----3--0-0-----0-0-----0-0-----0-0-----3-| 


----------------------------------------------------------------------| 
----------------------------------------------------------------------| 
----------------------------------------------------------------------| 
-----222-----222-----222------^---------222-----222-----222------^----| 
-----------------------------2-0--------------------------------2-0---| 
-0-0-----0-0-----0-0-----0-0-----3--0-0-----0-0-----0-0-----0-0-----3-| 




4:00 

--------------------------------------------------------------------------| 
--------------------------------------------------------------------------| 
---------------------------___----------------------------------___-------| 
-----444-----444-----444--/   \-----------444-----444-----444--/   \------| 
-------------------------4-2-4-2------------------------------4-2-4-2-----| 
-2-2-----2-2-----2-2-------------5-4--2-2-----2-2-----2-2-------------5-4-| 


--------------------------------------------------------------------------| 
--------------------------------------------------------------------------| 
---------------------------___----------------------------------___-------| 
-----444-----444-----444--/   \-----------444-----444-----444--/   \------| 
-------------------------4-2-4-2------------------------------4-2-4-2-----| 
-2-2-----2-2-----2-2-------------5-4--2-2-----2-2-----2-2-------------5-4-| 


--------------------------------------------------------------------------| 
--------------------------------------------------------------------------| 
---------------------------___----------------------------------___-------| 
-----444-----444-----444--/   \-----------444-----444-----444--/   \------| 
-------------------------4-2-4-2------------------------------4-2-4-2-----| 
-2-2-----2-2-----2-2-------------5-4--2-2-----2-2-----2-2-------------5-4-| 


--------------------------------------------------------------------------| 
--------------------------------------------------------------------------| 
---------------------------___----------------------------------___-------| 
-----444-----444-----444--/   \-----------444-----444-----444--/   \------| 
-------------------------4-2-4-2------------------------------4-2-4-2-----| 
-2-2-----2-2-----2-2-------------5-4--2-2-----2-2-----2-2-------------5-4-| 




4:27 

---------------------------------------------------------------------------| 
---------------------------------------------------------------------------| 
---------------------------___----------------------------------___--------| 
-----666-----666-----666--/   \-----------666-----666-----666--/   \-------| 
-------------------------6-4-6-4------------------------------6-4-6-4------| 
-4-4-----4-4-----4-4-------------7-6--4-4-----4-4-----4-4-------------7-6--| 



4:34 

-------------------------------------------------------------------------| 
-------------------------------------------------------------------------| 
-------------------------------------------------------------------------| 
-----777-----777-----777-----777-----------------------------------------| 
----------------------------------9--9999--9--9999--9-9--9-9--9--9--9--9-| 
-5-5-----5-5-----5-5-----5-5------7--7777--7--7777--7-7--7-7--7--7--7--7-| 





4:41 


----------------------------------------------------------------| 
----------------------------------------------------------------| 
----------------------------------------------------------------| 
--------^-------^-----------------------^-------^---------------| 
-------5-------4-------3---4-5---------5-------4-------3---4-5--| 
0--0-0-3-0-0-0-2-0-0-0-1-0-2-3--0--0-0-3-0-0-0-2-0-0-0-1-0-2-3--| 
*  * *     * *     * *   *      *  * *     * *     * *   *       

----------------------------------------------------------------| 
----------------------------------------------------------------| 
----------------------------------------------------------------| 
--------^-------^-----------------------^-------^---------------| 
-------5-------4-------3---4-5---------5-------4-------3---4-5--| 
0--0-0-3-0-0-0-2-0-0-0-1-0-2-3--0--0-0-3-0-0-0-2-0-0-0-1-0-2-3--| 
*  * *     * *     * *   *      *  * *     * *     * *   *    





4:55 

----------------------------------------------------------| 
----------------------------------------------------------| 
----------------------------------------------------------| 
----------------------------------^-------^---------------| 
---------------------------------5-------4-------3---4-5--| 
-0--0--3--5--6~--0--3--5--0--0-0-3-0-0-0-2-0-0-0-1-0-2-3--| 
                          *  * *     * *     * *   * 

----------------------------------------------------------| 
----------------------------------------------------------| 
----------------------------------------------------------| 
----------------------------------^-------^---------------| 
---------------------------------5-------4-------3---4-5--| 
-0--0--3--5--6~--0--3--5--0--0-0-3-0-0-0-2-0-0-0-1-0-2-3--| 
                          *  * *     * *     * *   * 

----------------------------------------------------------| 
----------------------------------------------------------| 
----------------------------------------------------------| 
----------------------------------^-------^---------------| 
---------------------------------5-------4-------3---4-5--| 
-0--0--3--5--6~--0--3--5--0--0-0-3-0-0-0-2-0-0-0-1-0-2-3--| 
                          *  * *     * *     * *   * 

----------------------------------------------------------| 
----------------------------------------------------------| 
----------------------------------------------------------| 
----------------------------------^-------^---------------| 
---------------------------------5-------4-------3---4-5--| 
-0--0--3--5--6~--0--3--5--0--0-0-3-0-0-0-2-0-0-0-1-0-2-3--| 
                          *  * *     * *     * *   * 



5:22 

-------0-----------------0-----------------0----------------0----------| 
-----------0-----------0-----0----------------0-----------0-----0------| 
-----5-------5-------5---------5---------5------5-------2---------2----| 
---7-----------7---6-------------6-----7----------7---3-------------3--| 
-0-----------------------------------0---------------------------------| 
-----------------------------------------------------------------------| 


-------0-----------------0-----------------0----------------0----------| 
-----------0-----------0-----0----------------0-----------0-----0------| 
-----5-------5-------7---------7---------5------5-------2---------2----| 
---7-----------7---6-------------6-----7----------7---3-------------3--| 
-0-----------------------------------0---------------------------------| 
-----------------------------------------------------------------------| 






5:50 

----------------------------------------------------------------| 
----------------------------------------------------------------| 
----------------------------------------------------------------| 
--------^-------^-----------------------^-------^---------------| 
-------5-------4-------3---4-5---------5-------4-------3---4-5--| 
0--0-0-3-0-0-0-2-0-0-0-1-0-2-3--0--0-0-3-0-0-0-2-0-0-0-1-0-2-3--| 
*  * *     * *     * *   *      *  * *     * *     * *   *       

----------------------------------------------------------------| 
----------------------------------------------------------------| 
----------------------------------------------------------------| 
--------^-------^-----------------------^-------^---------------| 
-------5-------4-------3---4-5---------5-------4-------3---4-5--| 
0--0-0-3-0-0-0-2-0-0-0-1-0-2-3--0--0-0-3-0-0-0-2-0-0-0-1-0-2-3--| 
*  * *     * *     * *   *      *  * *     * *     * *   *    




6:04 

---------------------------------------------------------------------------| 
---------------------------------------------------------------------------| 
---------------------------------------------------------------------------| 
------9---3-----------9---3---4-5-4---------9---3-----------9---3---4-5-4--| 
-----/7---1----------/7---1---2-3-2--------/7---1----------/7---1---2-3-2--| 
-0---------------0---------------------0-------------0---------------------| 
        \               \                     \               \           

---------------------------------------------------------------------------| 
---------------------------------------------------------------------------| 
---------------------------------------------------------------------------| 
------9---3-----------9---3---4-5-4---------9---3-----------9---3---4-5-4--| 
-----/7---1----------/7---1---2-3-2--------/7---1----------/7---1---2-3-2--| 
-0---------------0---------------------0-------------0---------------------| 
        \               \                     \               \          | 
	  
E-Chords has the most powerful ukulele chords dictionary on the internet. You can enter any chord and even choose the pitch of each string.

Search Paypal
auto scroll beats size up size down change color
tab show chords e-chords YouTube Clip e-chords hide all tabs e-chords go to top tab