Baby Rasta y Gringo

Cierra los ojos bien

Baby Rasta y Gringo

ukulele Beginner beginner

by  Y0RK4

save to print version add songbook text version e-mail correct tuner
chordsukulelecavacokeyboardtabbassdrumsharmonicaflute Guitar Pro
close

there isn't a video lesson for this song

chords

Cierra los ojos bien

	  		    
 
  Am               G              F                E 
E------------------3--------------1-----------------0--------- 
A0------------------2--------------3-----------------2-------- 
D-2------------------0--------------3-----------------2------- 
G--2------------------0--------------2----2--2---------1------ 
B---1------------------0--3-1-3-------1--------1--------0---3- 
E----0-0-0-0-1-0--------3--------------1--------1--------0---- 
 
        Am              G                    F             E 
E-----------------------3--------------------1-------------0------------- 
A-------0----------------2--------------------3-------------2------------ 
D--------2----------------0--------------------3-------------2----------- 
G---------2----------------0--------------------2------2------1---------- 
B3-1-3-----1----------------3--3-3-3-3-1-0-------1---0---------0-----3---           
E-----------0-0-0-0-5--------3--------------------1-------------0--0---0-
tab
Am G F Em cierra los ojos bien y solamente pide un deseo Am G F Em para que estes a mi lado me beses me acaricies me des tu calor o traves Am G F Em cierra los ojos bien y sola mente pide un deseo Am G F Em por que tu padre y tu madre dicen que yo soy un maliante de la calle b) Am G F Em estan equivocado no saben lo que dicen estan confundido yo no soy lo que dicen Am G F Em yo no soy maliante yo no soy maliante tu sabes muy bien que yo quiero es amarte Am G F Em no llores no sueltes una lagrima no te pongas triste que me rompe mi alma Am G F Em no llores no sueltes una lagrima no te pongas triste que me rompe mi alma Am G F Em por siempre yo te amare y en busca de ti yo siempre yo estare Am G F Em por siempre yo te amare y en busca de ti yo siempre yo estare a) coro Am G F Em asi que cierra los ojos bien y sola mente pide un deseo Am G F Em para que estes a mi lado me beses me acaricies me des tu calor o traves Am G F Em asi que cierra los ojos bien y sola mente pide un deseo Am G F Em por que tu madre y tu padre dicen que yo soy un maliante de la calle a) Am G F Em mira lo que hiso tu madre ella no ve que sola tu sufres Am G F Em quiero que sepa que yo te amo y quiero que sepa lo que yo ciento. aqui biene el punteo pero lo puedes seguir con: Am-G-F-Em Am G yo quiero,yo quiero,yo quiero,yo quiero yo verte F Em yo quiero,yo quiero,yo quiero,yo quiero besarte Am G yo quiero,yo quiero,yo quiero,yo quiero amarte F Em pero tu madre dice que soy maliante Am G me ciento, me ciento,me ciento muy solo F Em me ciento, me ciento,me ciento que me muero Am G me ciento, me ciento,me ciento muy triste F Em y de pensar que nuca mas podre sentirte A G no quiero, no quiero ,no quiero que pase (que pase) F Em no quiero, no quiero, no quiero que te vajas A G F Em lo que quiero es poceerte besarte acariciarte sin que tu madre no nos separe coro b) coro
E-Chords has the most powerful ukulele chords dictionary on the internet. You can enter any chord and even choose the pitch of each string.

Full key step upFull key step up
Half key step upHalf key step up
Half key step downHalf key step down
Full key step downFull key step down
are you left-handed?
hide glossary

See also:

chords Baby Rasta y Gringo - Cierra los ojos bien
e-chords

Other versions:

ukulele Baby Rasta y Gringo - Cierra los ojos bien
auto scroll beats size up size down change color
tab show chords e-chords YouTube Clip e-chords hide all tabs e-chords go to top tab

share