Zelda

Zelda 5 Oot - Deku Tree's Last Words

Zelda

tabs

by  ADALGOMES

save to print version add songbook text version e-mail correct tuner
chordsukulelecavacokeyboardtabbassdrumsharmonicaflute Guitar Pro
close

there isn't a video lesson for this song

chords

Zelda 5 Oot - Deku Tree's Last Words

	  		E |-------------------|------------------|-----------------1----| 
B |-------------------|------------------|-------1----2----1----| 
G |-------------------|------------------|-------0----1---------| 
D |-------------------|------------------|----------------------| 
A |-------------------|------------------|----------------------| 
C |--0----------------|------------------|--0-------------------| 

|--0-----------------|-----------------1----|--0----6----3--------| 
|--0----1------------|-------1----2----1----|--0----6----5--------| 
|-------0------------|-------0----1---------|---------------------| 
|--------------------|----------------------|---------------------| 
|--------------------|----------------------|---------------------| 
|--------------------|--1-------------------|---------------------| 

|-------1----0----1----|--0-----------------|--------------------------| 
|-------1----2----1----|--0----1------------|--------------------------| 
|----------------------|-------0------------|--3--1--3-----1-----3--1--| 
|----------------------|--------------------|-----------------1--3-----| 
|----------------------|--------------------|--------4--3--4-----------| 
|--0-------------------|--------------------|--1-----------------------| 

|---------------------| 
|-----2--1------------| 
|--0------------------| 
|---------------------| 
|---------------------| 
|--0------------------| 
		  

auto scroll beats size up size down change color hide chords drawings
tab show chords e-chords YouTube Clip e-chords hide all tabs e-chords go to top tab

share