Zelda

Majora's Mask - Tatl And Tael Meet Again

Zelda

tabs

by  ANDRSOUZA

save to print version add songbook text version e-mail correct tuner
chordsukulelecavacokeyboardtabbassdrumsharmonicaflute Guitar Pro
close

there isn't a video lesson for this song

chords

Majora's Mask - Tatl And Tael Meet Again

	  		Viol„o 1 ? Standard (E  A  D  G  B  E) 
Viol„o 2 - Drop D   (D  A  D  G  B  E) 

Viol„o 1 

E |--------------0---2----------------------------0---2-7--------------| 
B |---0--3----1--------3---------------0--3----1-----------------------| 
G |--------------------------------------------------------------------| 
D |--------------------------------------------------------------------| 
A |--------------------------------------------------------------------| 
E |--------------------------------------------------------------------| 

Viol„o 2 

E |--------------------------------------------------------------------| 
B |--------------------------------------------------------------------| 
G |--------------------------------------------------------------------| 
D |------0-------2--------0-------0-------0-------2--------0-------0---| 
A |------2-------3--------2-------2-------2-------3--------2-------2---| 
D |---5-------5--------5-------5-------5-------5--------5-------5------| 

Viol„o 1 

E |---7--5---7-5-------3------3-2--------------------------------------| 
B |---------------3-------1--------0-----------------------------------| 
G |--------------------------------------------------------------------| 
D |--------------------------------------------------------------------| 
A |--------------------------------------------------------------------| 
E |--------------------------------------------------------------------| 

Viol„o 2 

E |--------------------------------------------------------------------| 
B |--------------------------------------------------------------------| 
G |------0--------0-------0--------------------------------------------| 
D |------2--------0-------2--------4-----------------------------------| 
A |---3--------2-------0-----------5-----------------------------------| 
D |-----------------------------5--------------------------------------| 

Viol„o 1 

E |---7--5---7-5---10---10-10-8-8---7-7--5-----------------------------| 
B |--------------3-----------------------------------------------------| 
G |--------------------------------------------------------------------| 
D |--------------------------------------------------------------------| 
A |--------------------------------------------------------------------| 
E |--------------------------------------------------------------------| 

Viol„o 2 

E |--------------------------------------------------------------------| 
B |--------------------------------------------------------------------| 
G |------0---------0------------0--------------------------------------| 
D |------2---------0------------2--------------------------------------| 
A |---3--------2-----------0-------------3-----------------------------| 
D |-----------------------------------0--4-----------------------------| 
		  

Full key step upFull key step up
Half key step upHalf key step up
Half key step downHalf key step down
Full key step downFull key step down
auto scroll beats size up size down change color hide chords drawings
tab show chords e-chords YouTube Clip e-chords hide all tabs e-chords go to top tab

share