Yuki Kajiura

Swordland

Yuki Kajiura

tabs

by  TERR_SCHMITZ

save to print version add songbook text version e-mail correct tuner
chordsukulelecavacokeyboardtabbassdrumsharmonicaflute Guitar Pro
close

there isn't a video lesson for this song

chords

Swordland

	  		
Tuning: 

e|---------------------------------------------------------------------------| 
B|------------------------------------------------------10-9-7-5-7-7-9-10-9-7| 
G|-----0-----0-------------------4-9-8-6-5-6-8-6-6-8-9-9---------------------| 
D|----2-4---2-4-2-4-5-7-4-5-4-2-2--------------------------------------------| 
A|---2---2-2-----------------------------------------------------------------| 
E|--0------------------------------------------------------------------------| 

e|--------------------6-4-----------4-6-7-9-7-6-4-6-----6-9-8-9-9------6-9-8-| 
B|5-10-9-------------6---7-6-4-4-6-7---------------------6-------7-7-7-------| 
G|------6-8-5-3-3-5-6--------------------------------------------------------| 
D|---------------------------------------------------------------------------| 
A|---------------------------------------------------------------------------| 
E|---------------------------------------------------------------------------| 

e|-8-8-11-11-13-13-13-11-8-9-2-2-9-8-9-11-13-11-9-6-9-9-8-8-6-8-6-5----------| 
B|--9------------------------------------------------------------------------| 
G|---------------------------------------------------------------------------| 
D|---------------------------------------------------------------------------| 
A|---------------------------------------------------------------------------| 
E|---------------------------------------------------------------------------| 

e|---------------------------------------------------------------------------| 
B|------------------------------------------------------10-9-7-5-7-7-9-10-9-7| 
G|-----0-----0-------------------4-9-8-6-5-6-8-6-6-8-9-9---------------------| 
D|----2-4---2-4-2-4-5-7-4-5-4-2-2--------------------------------------------| 
A|---2---2-2-----------------------------------------------------------------| 
E|--0------------------------------------------------------------------------| 

e|--------------------6-4-----------4-6-7-9-7-6-4-6---0-2-3-5-0-2-3-5-0-2-3-5| 
B|5-10-9-------------6---7-6-4-4-6-7-----------------------------------------| 
G|------6-8-5-3-3-5-6--------------------------------------------------------| 
D|---------------------------------------------------------------------------| 
A|---------------------------------------------------------------------------| 
E|---------------------------------------------------------------------------| 



e|--3-2-0-2-0-2-3-5-0-2-3-5-0-2-3-5-7-5-8-7-7-7------------------------------| 
B|---------------------------------------------------------------------------| 
G|---------------------------------------------------------------------------| 
D|---------------------------------------------------------------------------| 
A|---------------------------------------------------------------------------| 
E|---------------------------------------------------------------------------| 

************************************ 

| /   slide up 
| \   slide down 
| h   hammer-on 
| p   pull-off 
| ~   vibrato 
| +   harmonic 
| x   Mute note 
| b   Bend 
| pb  Pre-bend 
| br  Bend release 
| pbr Pre-bend release 
| brb Bend release bend 

************************************ 

ENJOY =) 
		  

auto scroll beats size up size down change color hide chords drawings
tab show chords e-chords YouTube Clip e-chords hide all tabs e-chords go to top tab

share