Yuki Kajiura

Decretum

Yuki Kajiura

tabs

by  TERCMORAES

save to print version add songbook text version e-mail correct tuner
chordsukulelecavacokeyboardtabbassdrumsharmonicaflute Guitar Pro
close

there isn't a video lesson for this song

chords

Decretum

	  		
 

 


     Q       Q    E  E  Q       Q    E  E  Q       Q    E  E  Q       Q    E  E  Q       Q    E  E  Q 
E |--0----|--3----------2----|--3-------5--7----|--2-------3--2----|--0----------0----|--3----------2----| 
B |-------|----------0-------|------------------|------------------|----------0-------|----------1-------| 
G |-------|-------0----------|-------0----------|-------2----------|-------0----------|------------------| 
D |-------|--2---------------|--2---------------|--0---------------|--2---------------|-------2----------| 
A |-------|------------------|------------------|------------------|------------------|--3---------------| 
E |-------|------------------|------------------|------------------|------------------|------------------| 


                                        ^ 
  Q    E  E  Q       Q    E  E  Q       Q    Q    Q       Q    E  E  Q       Q    E  E  Q 
--3-------5--7----|--2-------3--5----|--8----7----5----|--3----------2----|--3-------5--7----| 
------------------|------------------|--8--------------|----------0-------|------------------| 
------------------|-------2----------|--7--------------|-------0----------|-------0----------| 
-------2----------|--0---------------|-----------------|--2---------------|--2---------------| 
--3---------------|------------------|-----------------|------------------|------------------| 
------------------|------------------|--7--------------|------------------|------------------| 


  Q    E  E  Q       Q    E  E  Q       Q    E  E  Q       Q    Q    Q       Q    E  E  Q 
--2-------3--2----|--0----------0----|--3-------5--3----|--2----0---------|--2----------2----| 
------------------|----------0-------|------------------|------------3----|----------0-------| 
-------2----------|-------0----------|------------------|--2--------------|-------0----------| 
--0---------------|--2---------------|-------2----------|--0--------------|--2---------------| 
------------------|------------------|--3---------------|-----------------|------------------| 
------------------|------------------|------------------|-----------------|------------------| 


  Q    E  E  Q       E  E  E  E  E  E     E  E  E  E  E  E     E  E  E  E  E  E     E  E  E  E  E  E 
--0----------0----|--3-----------2-----|--3--------5--7-----|--2--------3--2-----|--0-----------0-----| 
----------0-------|--------0-----------|--------0-----------|--------3-----------|-----------0--------| 
-------0----------|-----0-----0-----0--|-----0-----------0--|-----2-----------0--|--------0--------0--| 
--2---------------|--------------------|--------------------|--0-----------------|-----2--------------| 
------------------|--------------------|--------------------|--------------------|--------------------| 
------------------|--0-----------------|--0-----------------|--------------------|--0-----------------| 


  E  E  E  E  E  E     E  E  E  E  E  E     E  E  E  E  Q       E  E  E  E  E  E     E  E  E  E  E  E 
--3-----------2-----|--3--------5--7-----|--2--------3--5----|--8-----7-----5-----|--3-----------2-----| 
--------0-----------|--------0-----------|--------0----------|-----8--------------|--------0-----------| 
-----0-----0-----0--|-----0-----------0--|-----2-------------|--7--------7-----4--|-----0-----0-----0--| 
--------------------|--------------------|--0----------------|--------------------|--------------------| 
--3-----------------|--3-----------------|-------------------|--------------------|--------------------| 
--------------------|--------------------|-------------------|--7-----------------|--0-----------------| 


  E  E  E  E  E  E     E  E  E  E  E  E     E  E  E  E  E  E     E  E  E  E  E  E     E  E  E  E  E  E 
--3--------5--7-----|--2--------3--2-----|--0-----------0-----|--3-----5-----3-----|--2-----0-----------| 
--------0-----------|--------3-----------|-----------0--------|--------------------|--------------3-----| 
-----0-----------0--|-----2-----------0--|--------0--------0--|-----0-----0-----0--|-----2-----2-----2--| 
--------------------|--0-----------------|-----2--------------|--------------------|--0-----------------| 
--------------------|--------------------|--------------------|--3-----------------|--------------------| 
--0-----------------|--------------------|--0-----------------|--------------------|--------------------| 


  E  E  E  E  Q       Q.     E  E  E     E  E  E  E  E  E     Q    Q    Q       E  E  E  E  Q 
--2--------3--2----|--0---------------|--------------------|-------0---------|-------------------| 
--------0----------|--0------------0--|--1--------3--1-----|--0---------0----|-----------0-------| 
-----0-------------|--1------1--2-----|--------2--------2--|--0--------------|--2-----------2----| 
-------------------|------------------|-----2--------------|-----------------|--------2----------| 
-------------------|------------------|--0-----------------|-----------------|-----3-------------| 
--0----------------|--0---------------|--------------------|--3--------------|--1----------------| 


  H        Q       Q    Q    Q       Q    Q    Q       E  E  E  E  Q       Q    Q    Q 
----------------|-----------------|-----------------|--0--------1--0----|-----------------| 
----------------|-----------------|--0----1----3----|--------1----------|--3----1----0----| 
--0--------0----|-------0----2----|--0--------------|-----0-------------|-----------------| 
--2-------------|--3--------------|-----------------|-------------------|-----------------| 
--3-------------|--5--------------|-----------------|--3----------------|--2--------------| 
----------------|-----------------|--3--------------|-------------------|------------0----| 


  E  E  E  E  Q       Q    H           E  E  E  E  Q       Q    Q    Q       E  E  E  E  E  E 
-------------------|-------0--------|-------------------|------------0----|--1-----0-----------| 
--1--------3--1----|--0-------------|-----------0-------|-------1---------|--------------3-----| 
--------0----------|--0-------------|--2-----------2----|--0--------------|-----2-----2-----2--| 
-----2-------------|----------------|--------2----------|--2--------------|--0-----------------| 
--0----------------|----------------|-----3-------------|--3--------------|--------------------| 
-------------------|--3-------------|--1----------------|-----------------|--------------------| 


  E  E  E  E  E  E     E  E  E  E  E  E     Q    Q    Q       E  E  E  E  E  E     E  E  E  E  E  E 
--------------------|--0-----------3--1--|--0--------------|-----------0--------|-----------0--------| 
--3-----1-----3-----|-----------0--------|--0--------------|--------1-----1-----|--------0-----0-----| 
-----2-----2-----2--|--------1-----------|-----------------|-----2-----------2--|-----0-----------0--| 
--0-----------------|-----2--------------|--2----0---------|--------------------|--------------------| 
--------------------|--------------------|------------2----|--0-----------------|--------------------| 
--------------------|--0-----------------|-----------------|--------------------|--3-----------------| 


  E  E  E  E  E  E     E  E  E  E  E  E     E  E  E  E  E  E     E  E  E  E  E  E     E  E  E  E  E  E 
-----------1--------|-----------0--------|-----------1--------|-----------1--------|-----------0--------| 
--------1-----1-----|--------1-----1-----|--------3-----3-----|--------0-----0-----|--------0-----0-----| 
-----2-----------2--|-----2-----------2--|-----2-----------2--|-----0-----------0--|-----0-----------0--| 
--------------------|--------------------|--0-----------------|--------------------|--------------------| 
--------------------|--3-----------------|--------------------|--------------------|--3-----------------| 
--1-----------------|--------------------|--------------------|--3-----------------|--------------------| 


  E  E  E  E  E  E     E  E  E  E  E  E     E  E  E  E  E  E     E  E  E  E  E  E     E  E  E  E  E  E 
-----------0--------|-----------0--------|-----------0--------|-----------1--------|-----------0--------| 
--------3-----3-----|--------1-----1-----|--------0-----0-----|--------1-----1-----|--------1-----1-----| 
-----1-----------1--|-----2-----------2--|-----0-----------0--|-----2-----------2--|-----2-----------2--| 
--------------------|--------------------|--------------------|--------------------|--------------------| 
--2-----------------|--0-----------------|--------------------|--------------------|--3-----------------| 
--------------0-----|--------------------|--3-----------------|--1-----------------|--------------------| 


                                                                 ^ 
  E  E  E  E  E  E     E  E  E  E  E  E     E  E  E  E  E  E     Q    Q    Q       Q    E  E  Q 
-----------1--------|-----------1--------|-----------0--------|--0----0---------|------------------| 
--------3-----3-----|--------3-----3-----|--------1-----1-----|--1--------------|--1----------0----| 
-----2-----------2--|-----2-----------2--|-----2-----------2--|--2---------2----|----------2-------| 
--0-----------------|--0-----------------|--2-----------------|--2--------------|-------2----------| 
--------------------|--------------------|--------------------|-----------------|--0---------------| 
--------------------|--------------------|--------------------|--0--------------|------------------| 


  Q    E  E  Q       Q    E  E  Q       Q    Q    Q       Q    E  E  Q       Q    E  E  Q 
-------------0----|------------------|-----------------|------------------|-------------0----| 
--1-------3-------|--0-------1--0----|-----------------|--1----------0----|--1-------3-------| 
------------------|------------------|--2---------2----|----------2-------|------------------| 
-------2----------|-------2----------|-------2---------|-------3----------|-------3----------| 
--0---------------|------------------|--0--------------|------------------|------------------| 
------------------|--3---------------|-----------------|--1---------------|--1---------------| 


  Q    E  E  Q       Q    Q    Q       Q    E  E  Q       Q    E  E  Q       Q    E  E  Q 
------------------|--1----0---------|------------------|-------------0----|------------------| 
--0-------1--3----|--1---------3----|--1----------0----|--1-------3-------|--0-------1--0----| 
-------0----------|-----------------|----------2-------|------------------|------------------| 
------------------|-----------------|-------2----------|-------2----------|-------2----------| 
------------------|-----------------|--0---------------|--0---------------|------------------| 
--3---------------|--0--------------|------------------|------------------|--3---------------| 


                                                        ^ 
  Q    Q    Q       Q.     E  Q       Q    Q    Q       Q.     E  Q       H.              E  E  E  E  E  E 
-----------------|-----------------|-----------------|-----------------|---------------|-----------0--------| 
-----------------|--1------3--1----|--0--------------|--0------1--0----|---------------|--------1-----1-----| 
--2---------2----|-----------------|-------2----0----|--2--------------|--2------------|-----2-----------2--| 
-------2---------|-----------------|-----------------|--0--------------|---------------|--------------------| 
--0--------------|-----------------|-----------------|-----------------|---------------|--0-----------------| 
-----------------|--1--------------|--0--------------|-----------------|---------------|--------------------| 


                                            ^  v  ^  v  ^  v     ^ 
  E  E  E  E  E  E     E  E  E  E  E  E     E  E  E  E  E  E     H. 
-----------0--------|-----------0--------|--0--0--0--0--0--0--|--0------------|| 
--------0-----0-----|--------1-----1-----|--1--1--1--1--1--1--|--1------------|| 
-----1-----------1--|-----2-----------2--|--2--2--2--2--2--2--|--2------------|| 
--------------------|--------------------|--2--2--2--2--2--2--|--2------------|| 
--------------------|--0-----------------|--0--0--0--0--0--0--|--0------------|| 
--0-----------------|--------------------|--------------------|---------------|| 




Duration Legend 
--------------- 
W - whole 
H - half 
Q - quarter 
E - 8th 
S - 16th 
T - 32nd 
X - 64th 
. - note dotted 
|-n-|  - n-tuplets 


Tablature Legend 
---------------- 
L - tied note 
x - dead note 
g - grace note 
(n) - ghost note 
> - accentuded note 
NH - natural harmonic 
AH - artificial harmonic 
TH - tapped harmonic 
SH - semi harmonic 
PH - pitch harmonic 
h - hammer on 
p - pull off 
b - bend 
br - bendRelease 
pb - preBend 
pbr - preBendRelease 
brb - bendReleaseBend 
\n/ - tremolo bar dip 
\n - tremolo bar dive 
-/n - tremolo bar Release up 
/n\ - tremolo bar inverted dip 
/n - tremolo bar return 
-\n - tremolo bar Release down 
S - shift slide 
s - legato slide 
/ -  slide into from below or out of upwards 
\ -  slide into from above or out of downwards 
~ - vibrato 
W - wide vibrato 
tr - trill 
TP - tremolo picking 
T - tapping 
S - slap 
P - pop 
< - fade in 
^ - brush up 
v - brush down 
		  

auto scroll beats size up size down change color hide chords drawings
tab show chords e-chords YouTube Clip e-chords hide all tabs e-chords go to top tab

share