Yousei Teikoku

Kuusou Mesorogiwi Future Diary Mirai Nikki Op 1

Yousei Teikoku

tabs

by  PAULLET3

save to print version add songbook text version e-mail correct tuner
chordsukulelecavacokeyboardtabbassdrumsharmonicaflute Guitar Pro
close

there isn't a video lesson for this song

chords

Kuusou Mesorogiwi Future Diary Mirai Nikki Op 1

	  		INTRO (Played twice) 

e|---------------------------------------------------------------------------| 
B|----9--9-10-9------9-------9--9---10---9-----------------------------------| 
G|--8-----------11-8-------8------8----8---8-11------------------------------| 
D|---------------------------------------------------------------------------| 
A|---------------------------------------------------------------------------| 
E|---------------------------------------------------------------------------| 

VERSE 

e|-------------9p7----------------------7-7----------------------------------| 
B|----11-10-11-----11-10-------11-10-11-----11-11----------------------------| 
G|--8------------------------8-----------------------------------------------| 
D|---------------------------------------------------------------------------| 
A|---------------------------------------------------------------------------| 
E|---------------------------------------------------------------------------| 

e|-------------9p7----------------------7-7----------------------------------| 
B|----11-10-11-----11-10-------11-10-11-----11-11----------------------------| 
G|--8------------------------8-----------------------------------------------| 
D|---------------------------------------------------------------------------| 
A|---------------------------------------------------------------------------| 
E|---------------------------------------------------------------------------| 

e|------------------------------------------11-------------------------------| 
B|----------9-11-9-------------------9-11-9----11----------------------------| 
G|--8-10-11--------11-11-----8-10-11-----------------------------------------| 
D|---------------------------------------------------------------------------| 
A|---------------------------------------------------------------------------| 
E|---------------------------------------------------------------------------| 

e|---------------------------------------------------------------------------| 
B|--9-9-9---------9-10-9--------9-9-9---------9-10-9-------------------------| 
G|--------8--8-11--------11-----------8--8-11--------------------------------| 
D|---------------------------------------------------------------------------| 
A|---------------------------------------------------------------------------| 
E|---------------------------------------------------------------------------| 

e|---------------------------------------------------------------------------| 
B|-----9-10-10-10/12-10-9-12-10--14-12-10-10--12p10p9------------------------| 
G|--11-----------------------------------------------------------------------| 
D|---------------------------------------------------------------------------| 
A|---------------------------------------------------------------------------| 
E|---------------------------------------------------------------------------| 

Chorus 

e|---------------------------------------------------------------------------| 
B|--9-10-12-10-9----9--------9----10-9-10-12---------------------------------| 
G|---------------11------------11--------------------------------------------| 
D|---------------------------------------------------------------------------| 
A|---------------------------------------------------------------------------| 
E|---------------------------------------------------------------------------| 

e|---------------------------------------------------------------------------| 
B|--9-10-12-10-9----9---------10-9-----10-13---------------------------------| 
G|---------------11----------------9-8---------------------------------------| 
D|---------------------------------------------------------------------------| 
A|---------------------------------------------------------------------------| 
E|---------------------------------------------------------------------------| 

e|---------------------------------------------------------------------------| 
B|--13-11-13-14-9--------10-12-14-10-----------------------------------------| 
G|---------------------------------------------------------------------------| 
D|---------------------------------------------------------------------------| 
A|---------------------------------------------------------------------------| 
E|---------------------------------------------------------------------------| 

e|---------------------------------------------------------------------------| 
B|--12p10p9--------------9-10-9-----13-------14------------------------------| 
G|----------10--10-10-10---------------11-14---------------------------------| 
D|---------------------------------------------------------------------------| 
A|---------------------------------------------------------------------------| 
E|---------------------------------------------------------------------------| 

e|---------------------------------------------------------------------------| 
B|---------12-10---12p10-9---------------------------------------------------| 
G|------11-------------------------------------------------------------------| 
D|---11----------------------------------------------------------------------| 
A|---------------------------------------------------------------------------| 
E|---------------------------------------------------------------------------| 

OUTRO 

e|------9-----------------------------9--------------------------------------| 
B|--9-9----10-10-10-9--9-9-9-9------9---10-9-9-------------------------------| 
G|-----------------------------8--8------------------------------------------| 
D|---------------------------------------------------------------------------| 
A|---------------------------------------------------------------------------| 
E|---------------------------------------------------------------------------| 

e|----------9-------------------------------9-9-9-9-8---9-8-9-8--------------| 
B|--9-9-9-9----10-10-10-10-10-9--9-9-9-9-------------------------------------| 
G|---------------------------------------8-----------------------------------| 
D|---------------------------------------------------------------------------| 
A|---------------------------------------------------------------------------| 
E|---------------------------------------------------------------------------| 

 
		  

See also:

tabs Mymp - Closer I Get To You tabs Versailles Philharmonic Quintet - Vampire tabs Mymp - Tibok Ng Puso tabs Mymp - Eternal Flame (solo ver 2) tabs Flowers Travellin - Satori tabs Mymp - When I Dream
e-chords

Other versions:

tabs Yousei Teikoku - Kuusou Mesorogiwi Future Diary Mirai Nikki Op 1
auto scroll beats size up size down change color hide chords drawings
tab show chords e-chords YouTube Clip e-chords hide all tabs e-chords go to top tab

share