Yousei Teikoku

Kuusou Mesorogiwi

Yousei Teikoku

tabs Easy easy

by  BOMBAXXX

save to print version add songbook text version e-mail correct tuner
chordsukulelecavacokeyboardtabbassdrumsharmonicaflute Guitar Pro
close

there isn't a video lesson for this song

chords

Kuusou Mesorogiwi

	  		



   Time Signature: 4/4 
   * *                       *      * *           *         * * 
e||--------------------------------|--------------------------------| 
B||--------------------------------|--------------------------------| 
G||--------------------------------|--------------------------------| 
D||--------------------------------|--------------------------------| 
A||----4-----6---7-x-6-x-4-----6---|----4-----6-----7-----6-----4---| 
D||0-0-4-----6---7-x-6-x-4---0-6---|0-0-4-----6---0-7-----6-0-0-4---| 2x 

   * * * *   * * *   * * * * * * *  * * * *   * * *   * * * * * 
e||--------------------------------|--------------------------------| 
B||--------------------------------|--------------------------------| 
G||--------------------------------|--------------------------------| 
D||--------------------------------|----------------------------3-3-| 
A||0-0-0-0---0-0-0---0-0-0-0-0-0-0-|0-0-0-0---0-0-0---0-0-0-0-0-1-1-| 
D||0-0-0-0---0-0-0---0-0-0-0-0-0-0-|0-0-0-0---0-0-0---0-0-0-0-0-----| 2x 

   Time Signature: 2/4 
e||----------------| 
B||----------------| 
G||----------------| 
D||----------------| 
A||----------------| 
D||----------------| 

   Time Signature: 4/4 
                                        * * * *     * *     * * 
e||--------------------------------|--------------------------------| 
B||--------------------------------|--------------------------------| 
G||--------------------------------|--------------------------------| 
D||4---------------4-4---4-4---4---|--------------------------------| 
A||2---------------2-2---2-2---2---|1-----------1-------1-------1---| 
D||--------------------------------|1---1-1-1-1-1---1-1-1---1-1-1---| 2x 

   * *                              * * 
e||--------------------------------|--------------------------------| 
B||--------------------------------|--------------------------------| 
G||--------------------------------|--------------------------------| 
D||--------------------------------|--------------------------------| 
A||----4p1---6-----7-----6-----4---|----4p1---6-----7-----6-----4---| 
D||0-0-4p1---6-----7-----6-----4---|0-0-4p1---6-----7-----6-----4---| 2x 

e||--------------------------------|--------------------------------| 
B||--------------------------------|--------------------------------| 
G||--------------------------------|--------------------------------| 
D||--------------------------------|--------------------------------| 
A||4-------------------------------|6-------------------------------| 
D||4-------------------------------|6-------------------------------| 

e||--------------------------------|--------------------------------| 
B||--------------------------------|--------------------------------| 
G||--------------------------------|--------------------------------| 
D||--------------------------------|--------------------------------| 
A||7-------------------------------|6---------------6---x-x-6---6---| 
D||7-------------------------------|6---------------6---x-x-6---6---| 

   Time Signature: 2/4 
e||----------------| 
B||----------------| 
G||----------------| 
D||----------------| 
A||----------------| 
D||----------------| 

   Time Signature: 4/4 
       * *     * *                      * *     * * 
e||--------------------------------|--------------------------------| 
B||--------------------------------|--------------------------------| 
G||--------------------------------|--------------------------------| 
D||6-------6-------6---x-6---6-6---|--------------------------------| 
A||4---4-4-4---4-4-4---x-4---4-4---|7-------7-------7---x-7---7-7---| 
D||--------------------------------|7---7-7-7---7-7-7---x-7---7-7---| 

       * *     * *                      * *     * * 
e||--------------------------------|--------------------------------| 
B||--------------------------------|--------------------------------| 
G||--------------------------------|--------------------------------| 
D||--------------------------------|--------------------------------| 
A||4-------4-------4---x-4---4-4---|6-------6-------6---x-6---6-6---| 
D||4---4-4-4---4-4-4---x-4---4-4---|6---6-6-6---6-6-6---x-6---6-6---| 

       * *     * *                      * *     * * 
e||--------------------------------|--------------------------------| 
B||--------------------------------|--------------------------------| 
G||--------------------------------|--------------------------------| 
D||6-------6-------6---x-6---6-6---|--------------------------------| 
A||4---4-4-4---4-4-4---x-4---4-4---|7-------7-------7---x-7---7-7---| 
D||--------------------------------|7---7-7-7---7-7-7---x-7---7-7---| 

       * *     * *                      * *     * * 
e||--------------------------------|--------------------------------| 
B||--------------------------------|--------------------------------| 
G||--------------------------------|--------------------------------| 
D||--------------------------------|----------------5---------------| 
A||4-------4-------4---x-4---4-4---|6-------6-------3-----4-----6---| 
D||4---4-4-4---4-4-4---x-4---4-4---|6---6-6-6---6-6-------4-----6---| 

   * * * *                          * * * * 
e||--------------------------------|--------------------------------| 
B||--------------------------------|--------------------------------| 
G||--------------------------------|--------------------------------| 
D||----------------6---------------|----------------6---------------| 
A||--------7-------4-------6-------|--------7-------4-------4-------| 
D||6-6-6-6-7---------------6-------|6-6-6-6-7---------------4-------| 2x 

   * *                       *      * *           *         * * 
e||--------------------------------|--------------------------------| 
B||--------------------------------|--------------------------------| 
G||--------------------------------|--------------------------------| 
D||--------------------------------|--------------------------------| 
A||----4-----6---7-x-6-x-4-----6---|----4-----6-----7-----6-----4---| 
D||0-0-4-----6---7-x-6-x-4---0-6---|0-0-4-----6---0-7-----6-0-0-4---| 2x 

   * * * *   * * *   * * * * * * *  * * * *   * * *   * * * * * 
e||--------------------------------|--------------------------------| 
B||--------------------------------|--------------------------------| 
G||--------------------------------|--------------------------------| 
D||--------------------------------|----------------------------3-3-| 
A||0-0-0-0---0-0-0---0-0-0-0-0-0-0-|0-0-0-0---0-0-0---0-0-0-0-0-1-1-| 
D||0-0-0-0---0-0-0---0-0-0-0-0-0-0-|0-0-0-0---0-0-0---0-0-0-0-0-----| 2x 

   Time Signature: 2/4 
e||----------------| 
B||----------------| 
G||----------------| 
D||----------------| 
A||----------------| 
D||----------------| 

   Time Signature: 4/4 
                                        * * * *     * *     * * 
e||--------------------------------|--------------------------------| 
B||--------------------------------|--------------------------------| 
G||--------------------------------|--------------------------------| 
D||4---------------4-4---4-4---4---|--------------------------------| 
A||2---------------2-2---2-2---2---|1-----------1-------1-------1---| 
D||--------------------------------|1---1-1-1-1-1---1-1-1---1-1-1---| 2x 

   * *                              * * 
e||--------------------------------|--------------------------------| 
B||--------------------------------|--------------------------------| 
G||--------------------------------|--------------------------------| 
D||--------------------------------|--------------------------------| 
A||----4p1---6-----7-----6-----4---|----4p1---6-----7-----6-----4---| 
D||0-0-4p1---6-----7-----6-----4---|0-0-4p1---6-----7-----6-----4---| 2x 

e||--------------------------------|--------------------------------| 
B||--------------------------------|--------------------------------| 
G||--------------------------------|--------------------------------| 
D||--------------------------------|--------------------------------| 
A||4-------------------------------|6-------------------------------| 
D||4-------------------------------|6-------------------------------| 

e||--------------------------------|--------------------------------| 
B||--------------------------------|--------------------------------| 
G||--------------------------------|--------------------------------| 
D||--------------------------------|--------------------------------| 
A||7-------------------------------|6---------------6---x-x-6---6---| 
D||7-------------------------------|6---------------6---x-x-6---6---| 

   Time Signature: 2/4 
e||----------------| 
B||----------------| 
G||----------------| 
D||----------------| 
A||----------------| 
D||----------------| 

   Time Signature: 4/4 
       * *     * *                      * *     * * 
e||--------------------------------|--------------------------------| 
B||--------------------------------|--------------------------------| 
G||--------------------------------|--------------------------------| 
D||6-------6-------6---x-6---6-6---|--------------------------------| 
A||4---4-4-4---4-4-4---x-4---4-4---|7-------7-------7---x-7---7-7---| 
D||--------------------------------|7---7-7-7---7-7-7---x-7---7-7---| 

       * *     * *                      * *     * * 
e||--------------------------------|--------------------------------| 
B||--------------------------------|--------------------------------| 
G||--------------------------------|--------------------------------| 
D||--------------------------------|--------------------------------| 
A||4-------4-------4---x-4---4-4---|6-------6-------6---x-6---6-6---| 
D||4---4-4-4---4-4-4---x-4---4-4---|6---6-6-6---6-6-6---x-6---6-6---| 

       * *     * *                      * *     * * 
e||--------------------------------|--------------------------------| 
B||--------------------------------|--------------------------------| 
G||--------------------------------|--------------------------------| 
D||6-------6-------6---x-6---6-6---|--------------------------------| 
A||4---4-4-4---4-4-4---x-4---4-4---|7-------7-------7---x-7---7-7---| 
D||--------------------------------|7---7-7-7---7-7-7---x-7---7-7---| 

       * *     * *                      * *     * * 
e||--------------------------------|--------------------------------| 
B||--------------------------------|--------------------------------| 
G||--------------------------------|--------------------------------| 
D||--------------------------------|----------------5---------------| 
A||4-------4-------4---x-4---4-4---|6-------6-------3-----4-----6---| 
D||4---4-4-4---4-4-4---x-4---4-4---|6---6-6-6---6-6-------4-----6---| 

   * * * *                          * * * * 
e||--------------------------------|--------------------------------| 
B||--------------------------------|--------------------------------| 
G||--------------------------------|--------------------------------| 
D||----------------6---------------|----------------6---------------| 
A||--------7-------4-------6-------|--------7-------4-------4-------| 
D||6-6-6-6-7---------------6-------|6-6-6-6-7---------------4-------| 2x 

   * * * * *   * *   * *   * * * *  * * * * *   * *   * * * * * * * 
e||--------------------------------|--------------------------------| 
B||--------------------------------|--------------------------------| 
G||--------------------------------|--------------------------------| 
D||--------------------------------|--------------------------------| 
A||0-0-0-0-0---0-0---0-0---0-0-0-0-|0-0-0-0-0---0-0---0-0-0-0-0-0-0-| 
D||0-0-0-0-0---0-0---0-0---0-0-0-0-|0-0-0-0-0---0-0---0-0-0-0-0-0-0-| 8x 

e||--------------------------------|--------------------------------| 
B||--------------------------------|--------------------------------| 
G||--------------------------------|--------------------------------| 
D||--------------------------------|--------------------------------| 
A||4-------------------------------|6-------------------------------| 
D||4-------------------------------|6-------------------------------| 

e||--------------------------------|--------------------------------| 
B||--------------------------------|--------------------------------| 
G||--------------------------------|--------------------------------| 
D||--------------------------------|--------------------------------| 
A||7-------------------------------|6---------------6---x-x-6---6---| 
D||7-------------------------------|6---------------6---x-x-6---6---| 

e||--------------------------------| 
B||--------------------------------| 
G||--------------------------------| 
D||--------------------------------| 
A||--------------------------------| 
D||--------------------------------| 

e||--------------------------------|--------------------------------| 
B||--------------------------------|--------------------------------| 
G||--------------------------------|--------------------------------| 
D||6-------------------------------|--------------------------------| 
A||4-------------------------------|7-------------------------------| 
D||--------------------------------|7-------------------------------| 

e||--------------------------------|--------------------------------| 
B||--------------------------------|--------------------------------| 
G||--------------------------------|--------------------------------| 
D||--------------------------------|--------------------------------| 
A||4-------------------------------|6-----6-----6-------------------| 
D||4-------------------------------|6-----6-----6-------------------| 

       * *     * *                      * *     * * 
e||--------------------------------|--------------------------------| 
B||--------------------------------|--------------------------------| 
G||--------------------------------|--------------------------------| 
D||6-------6-------6---x-6---6-6---|--------------------------------| 
A||4---4-4-4---4-4-4---x-4---4-4---|7-------7-------7---x-7---7-7---| 
D||--------------------------------|7---7-7-7---7-7-7---x-7---7-7---| 

       * *     * *                      * *     * * 
e||--------------------------------|--------------------------------| 
B||--------------------------------|--------------------------------| 
G||--------------------------------|--------------------------------| 
D||--------------------------------|--------------------------------| 
A||4-------4-------4---x-4---4-4---|6-------6-------6---x-6---6-6---| 
D||4---4-4-4---4-4-4---x-4---4-4---|6---6-6-6---6-6-6---x-6---6-6---| 

       * *     * *                      * *     * * 
e||--------------------------------|--------------------------------| 
B||--------------------------------|--------------------------------| 
G||--------------------------------|--------------------------------| 
D||6-------6-------6---x-6---6-6---|--------------------------------| 
A||4---4-4-4---4-4-4---x-4---4-4---|7-------7-------7---x-7---7-7---| 
D||--------------------------------|7---7-7-7---7-7-7---x-7---7-7---| 

       * *     * *                      * *     * * 
e||--------------------------------|--------------------------------| 
B||--------------------------------|--------------------------------| 
G||--------------------------------|--------------------------------| 
D||--------------------------------|----------------5---------------| 
A||4-------4-------4---x-4---4-4---|6-------6-------3-----4-----6---| 
D||4---4-4-4---4-4-4---x-4---4-4---|6---6-6-6---6-6-------4-----6---| 

   * * * *                          * * * * 
e||--------------------------------|--------------------------------| 
B||--------------------------------|--------------------------------| 
G||--------------------------------|--------------------------------| 
D||----------------6---------------|----------------6---------------| 
A||--------7-------4-------6-------|--------7-------4-------4-------| 
D||6-6-6-6-7---------------6-------|6-6-6-6-7---------------4-------| 2x 

   * *                       *      * * 
e||--------------------------------|--------------------------------| 
B||--------------------------------|--------------------------------| 
G||--------------------------------|--------------------------------| 
D||--------------------------------|--------------------------------| 
A||----6-----6---7-x-6-x-4-----6---|----6-----6---7-x-6-x-4---6-0---| 
D||0-0-6-----6---7-x-6-x-4---0-6---|0-0-6-----6---7-x-6-x-4---6-0---| 2x 

 
		  

See also:

tabs One Ok Rock - Stand Out Fit In tabs Mymp - Fast Car tabs Mymp - Every Little Thing He Does Is Magic tabs Yousei Teikoku - Kokou No Sousei Genesis Of Solitude tabs Nightmare - Alumina Death Note Ending 1 tabs X Japan - Orgasm
e-chords

Other versions:

tabs Yousei Teikoku - Kuusou Mesorogiwi tabs Mirai Nikki - Kuusou Mesorogiwi tabs Yousei Teikoku - Kuusou Mesorogiwi Future Diary Mirai Nikki Op 1
auto scroll beats size up size down change color hide chords drawings
tab show chords e-chords YouTube Clip e-chords hide all tabs e-chords go to top tab

share