Yousei Teikoku

Kokou No Sousei Genesis Of Solitude

Yousei Teikoku

tabs

by  MARCNAGEL

save to print version add songbook text version e-mail correct tuner
chordsukulelecavacokeyboardtabbassdrumsharmonicaflute Guitar Pro
close

there isn't a video lesson for this song

chords

Kokou No Sousei Genesis Of Solitude

	  		Tuning: D-A-D-G-B-e 

Intro: 
e|----------------------|----------------------------| 
B|----------------------|----------------------------| 
G|----------------------|----------------------------| 
D|4pm--------4pm--------|4pm-----------4pm-----5-----| 
A|4pm--------4pm--------|4pm-----------4pm-----5-----| 
D|4pm--------4pm--------|4pm-----------4pm-----5-----| X4 

Intro 2: 
e|-------------------------------|-------------------------------| 
B|-------------------------------|-------------------------------| 
G|-------------------------------|-------------------------------| 
D|4-4-4-4-2-4-4-4-4-4-4-4-2-4-4-4|4-4-4-4-2-4-4-4-4-4-4-4-5-5-5-5| 
A|4-4-4-4-2-4-4-4-4-4-4-4-2-4-4-4|4-4-4-4-2-4-4-4-4-4-4-4-5-5-5-5| 
D|4-4-4-4-2-4-4-4-4-4-4-4-2-4-4-4|4-4-4-4-2-4-4-4-4-4-4-4-5-5-5-5| X4 

verse 1:  
e|----------------------|----------------------| 
B|----------------------|----------------------| 
G|----------------------|----------------------| 
D|4pm--------4pm--------|4pm--------4pm--5-----| 
A|4pm--------4pm--------|4pm--------4pm--5-----| 
D|4pm--------4pm--------|4pm--------4pm--5-----| X4 

"生まれながら負いし 罪で在るが故に 
倫理 、背徳感 恐れる事無かれ 
抑え切れぬ衝動からの 
語り掛けに身悶える"  
(By nature, we are sinful 
Without fail, we fear morals 
We tell ourselves to suppress our impulses 
And our bodies writhe with the pain) 

e|-------------------------------|-------------------------------| 
B|-------------------------------|-------------------------------| 
G|-------------------------------|-------------------------------| 
D|4-4-4-4-2-4-4-4-4-4-4-4-2-4-4-4|4-4-4-4-2-4-4-4-4-4-4-4-5-5-5-5| 
A|4-4-4-4-2-4-4-4-4-4-4-4-2-4-4-4|4-4-4-4-2-4-4-4-4-4-4-4-5-5-5-5| 
D|4-4-4-4-2-4-4-4-4-4-4-4-2-4-4-4|4-4-4-4-2-4-4-4-4-4-4-4-5-5-5-5| X2 

e|----------------------|----------------------| 
B|----------------------|----------------------| 
G|----------------------|----------------------| 
D|4pm--------4pm--------|4pm--------4pm----5---| 
A|4pm--------4pm--------|4pm--------4pm----5---| 
D|4pm--------4pm--------|4pm--------4pm----5---| X4 

"鏡映す姿 倒錯するほどに 
偽装映し出して 眩暈がするほどに 
無神経な貴方達は 
何故に" 
(The mirror reflects such a corrupted figure 
The facade it casts is such an exhilaration 
How will the truth 
Reflect upon your insensitive skins ? ) 

e|------------------------|------------------------| 
B|------------------------|------------------------| 
G|------------------------|------------------------| 
D|5--5--5--5--5--5--5--5--|5--5--5--5--5--5--5--5--| 
A|5--5--5--5--5--5--5--5--|5--5--5--5--5--5--5--5--| 
D|5--5--5--5--5--5--5--5--|5--5--5--5--5--5--5--5--| 

e|-------------------------------|-------------------------------| 
B|-------------------------------|-------------------------------| 
G|-------------------------------|-------------------------------| 
D|4-4-4-4-2-4-4-4-4-4-4-4-2-4-4-4|4-4-4-4-2-4-4-4-4-4-4-4-5-5-5-5| 
A|4-4-4-4-2-4-4-4-4-4-4-4-2-4-4-4|4-4-4-4-2-4-4-4-4-4-4-4-5-5-5-5| 
D|4-4-4-4-2-4-4-4-4-4-4-4-2-4-4-4|4-4-4-4-2-4-4-4-4-4-4-4-5-5-5-5| X2  

"映すのか 
身をえぐる カタルシス" 
(It's the catharsis 
Of hollowing out one's own body) 

e|----------|------------| 
B|----------|------------| 
G|----------|------------| 
D|4----7----|9------2-3--| 
A|4----7----|9------2-3--| 
D|4----7----|9------2-3--| X3 

e|----------|-----------| 
B|----------|-----------| 
G|----------|-----------| 
D|4----7----|9----11----| 
A|4----7----|9----11----| 
D|4----7----|9----11----| 

"其れならばいっそ心に添えて 
この身体淨化すればいい 
拒絶への悲願 進化の啓示 
樟脳の香るセルロイド" 
(If that's the case, then attach yourself to this body 
By this you'll be purified of your deepest wishes 
The evolution of the apocalypse 
Has the sweet scent of camphor on a photo) 

Chorus 1: 
e|-------------------------------|-------------------------------| 
B|-------------------------------|-------------------------------| 
G|-------------------------------|-------------------------------| 
D|4-4-4-4-4-4-4-4-4-4-4-4-4-4-4-4|2-2-2-2-2-2-2-2-2-2-2-2-2-2-2-2| 
A|4-4-4-4-4-4-4-4-4-4-4-4-4-4-4-4|2-2-2-2-2-2-2-2-2-2-2-2-2-2-2-2| 
D|4-4-4-4-4-4-4-4-4-4-4-4-4-4-4-4|2-2-2-2-2-2-2-2-2-2-2-2-2-2-2-2| 

e|-------------------------------|-------------------------------| 
B|-------------------------------|-------------------------------| 
G|-------------------------------|-------------------------------| 
D|1-1-1-1-1-1-1-1-1-1-1-1-1-1-1-1|0-0-0-0-0-0-0-0-2-2-2-2-2-2-2-2| 
A|1-1-1-1-1-1-1-1-1-1-1-1-1-1-1-1|0-0-0-0-0-0-0-0-2-2-2-2-2-2-2-2| 
D|1-1-1-1-1-1-1-1-1-1-1-1-1-1-1-1|0-0-0-0-0-0-0-0-2-2-2-2-2-2-2-2| X2 

"銀の髪と紅く深いガラスの眼で 
作り上げた似せて非ナル私へ 
生まれ変わる時が来ると疑えずに 
そっと撫でて抱いた人形への焦がれ" 
(My non-becoming was a lie, an imitation 
Silver hair and profound crimson eyes of glass 
Without a doubt, the time for change has come 
I long for someone to caress and hold this human flesh) 

e|-------------------------------|-------------------------------| 
B|-------------------------------|-------------------------------| 
G|-------------------------------|-------------------------------| 
D|4-4-4-4-2-4-4-4-4-4-4-4-2-4-4-4|4-4-4-4-2-4-4-4-4-4-4-4-5-5-5-5| 
A|4-4-4-4-2-4-4-4-4-4-4-4-2-4-4-4|4-4-4-4-2-4-4-4-4-4-4-4-5-5-5-5| 
D|4-4-4-4-2-4-4-4-4-4-4-4-2-4-4-4|4-4-4-4-2-4-4-4-4-4-4-4-5-5-5-5| X4 

"あぁ??..." 
(Ah...) 

verse 2: 
e|----------------------|----------------------| 
B|----------------------|----------------------| 
G|----------------------|----------------------| 
D|4pm--------4pm--------|4pm--------4pm--5-----| 
A|4pm--------4pm--------|4pm--------4pm--5-----| 
D|4pm--------4pm--------|4pm--------4pm--5-----| X4 

"人で在るが故の 絶えて消えぬ欲に 
比例、加算された何ガロンもの憂鬱 
ずれた価値を責める抑圧 
耐え難きし干渉者よ" 
(Through human life, greed dies and fades 
The melancholy grows by gallons in proportion 
To the restrained condemnation of the merit that was slipped off 
The intolerability of another's interference) 

e|------------------------|------------------------| 
B|------------------------|------------------------| 
G|------------------------|------------------------| 
D|5--5--5--5--5--5--5--5--|5--5--5--5--5--5--5--5--| 
A|5--5--5--5--5--5--5--5--|5--5--5--5--5--5--5--5--| 
D|5--5--5--5--5--5--5--5--|5--5--5--5--5--5--5--5--| 

e|-------------------------------|-------------------------------| 
B|-------------------------------|-------------------------------| 
G|-------------------------------|-------------------------------| 
D|4-4-4-4-2-4-4-4-4-4-4-4-2-4-4-4|4-4-4-4-2-4-4-4-4-4-4-4-5-5-5-5| 
A|4-4-4-4-2-4-4-4-4-4-4-4-2-4-4-4|4-4-4-4-2-4-4-4-4-4-4-4-5-5-5-5| 
D|4-4-4-4-2-4-4-4-4-4-4-4-2-4-4-4|4-4-4-4-2-4-4-4-4-4-4-4-5-5-5-5| X2  

"あと少し  
完全な  
器へと" 
(But after a little while 
I'll become  
the perfect vessel) 

e|----------|------------| 
B|----------|------------| 
G|----------|------------| 
D|4----7----|9------2-3--| 
A|4----7----|9------2-3--| 
D|4----7----|9------2-3--| X3 

e|----------|-----------| 
B|----------|-----------| 
G|----------|-----------| 
D|4----7----|9----11----| 
A|4----7----|9----11----| 
D|4----7----|9----11----| 

"すげ替えた身体壊れる日まで 
老いる事も無く美しく 
拒絶への悲願 進化の繭と 
暖かさ棄てたセルロイド" 
(This incredible substitution of my body to the sun can't be broken 
Nothing grows old, but neither is it beautiful 
This photo was warmly cast aside with the refusal of your deepest wishes 
And the evolution of your cocoon) 

Chorus 2: 
e|-------------------------------|-------------------------------| 
B|-------------------------------|-------------------------------| 
G|-------------------------------|-------------------------------| 
D|4-4-4-4-4-4-4-4-4-4-4-4-4-4-4-4|2-2-2-2-2-2-2-2-2-2-2-2-2-2-2-2| 
A|4-4-4-4-4-4-4-4-4-4-4-4-4-4-4-4|2-2-2-2-2-2-2-2-2-2-2-2-2-2-2-2| 
D|4-4-4-4-4-4-4-4-4-4-4-4-4-4-4-4|2-2-2-2-2-2-2-2-2-2-2-2-2-2-2-2| 

e|-------------------------------|-------------------------------| 
B|-------------------------------|-------------------------------| 
G|-------------------------------|-------------------------------| 
D|1-1-1-1-1-1-1-1-1-1-1-1-1-1-1-1|0-0-0-0-0-0-0-0-2-2-2-2-2-2-2-2| 
A|1-1-1-1-1-1-1-1-1-1-1-1-1-1-1-1|0-0-0-0-0-0-0-0-2-2-2-2-2-2-2-2| 
D|1-1-1-1-1-1-1-1-1-1-1-1-1-1-1-1|0-0-0-0-0-0-0-0-2-2-2-2-2-2-2-2| X2 

"黒のドレスからはずっと求めていた 
細く華奢な四肢がしなやかに伸び 
白のレース揺らしそっと歩き出すの 
思い描いていた孤高の創世へ" 
(This black dress has always been searched for 
To flexibly stretch these graceless limbs 
This white lace trembles softly with every step I take 
And my thoughts draw out the indifference of the creation of the world) 

e|-------------------------------|-------------------------------| 
B|-------------------------------|-------------------------------| 
G|-------------------------------|-------------------------------| 
D|4-4-4-4-2-4-4-4-4-4-4-4-2-4-4-4|4-4-4-4-2-4-4-4-4-4-4-4-5-5-5-5| 
A|4-4-4-4-2-4-4-4-4-4-4-4-2-4-4-4|4-4-4-4-2-4-4-4-4-4-4-4-5-5-5-5| 
D|4-4-4-4-2-4-4-4-4-4-4-4-2-4-4-4|4-4-4-4-2-4-4-4-4-4-4-4-5-5-5-5| X4 

"あぁ??..." 
(Ah...) 

Chorus 1 (repeated): 
e|-------------------------------|-------------------------------| 
B|-------------------------------|-------------------------------| 
G|-------------------------------|-------------------------------| 
D|4-4-4-4-4-4-4-4-4-4-4-4-4-4-4-4|2-2-2-2-2-2-2-2-2-2-2-2-2-2-2-2| 
A|4-4-4-4-4-4-4-4-4-4-4-4-4-4-4-4|2-2-2-2-2-2-2-2-2-2-2-2-2-2-2-2| 
D|4-4-4-4-4-4-4-4-4-4-4-4-4-4-4-4|2-2-2-2-2-2-2-2-2-2-2-2-2-2-2-2| 

e|-------------------------------|-------------------------------| 
B|-------------------------------|-------------------------------| 
G|-------------------------------|-------------------------------| 
D|1-1-1-1-1-1-1-1-1-1-1-1-1-1-1-1|0-0-0-0-0-0-0-0-2-2-2-2-2-2-2-2| 
A|1-1-1-1-1-1-1-1-1-1-1-1-1-1-1-1|0-0-0-0-0-0-0-0-2-2-2-2-2-2-2-2| 
D|1-1-1-1-1-1-1-1-1-1-1-1-1-1-1-1|0-0-0-0-0-0-0-0-2-2-2-2-2-2-2-2| X2 

"銀の髪と紅く深いガラスの眼で 
作り上げた似せて非ナル私へ 
縛るモノも責めるモノも有りはしない 
孤独だけが私癒し続けて往く" 
(My non-becoming was a lie, an imitation 
Silver hair and profound crimson eyes of glass 
There are no longer things that bind or condemn 
But only solitude can continue to heal) 

e|-------------------------------|-------------------------------| 
B|-------------------------------|-------------------------------| 
G|-------------------------------|-------------------------------| 
D|4-4-4-4-2-4-4-4-4-4-4-4-2-4-4-4|4-4-4-4-2-4-4-4-4-4-4-4-5-5-5-5| 
A|4-4-4-4-2-4-4-4-4-4-4-4-2-4-4-4|4-4-4-4-2-4-4-4-4-4-4-4-5-5-5-5| 
D|4-4-4-4-2-4-4-4-4-4-4-4-2-4-4-4|4-4-4-4-2-4-4-4-4-4-4-4-5-5-5-5| X8 

"あぁ??..." 
(Ah...) 

Ending: 
e|-------------------------------|-------------------------------| 
B|-------------------------------|-------------------------------| 
G|-------------------------------|-------------------------------| 
D|-------------------------------|-------------------------------| 
A|-------------------------------|-------------------------------| 
D|4-4-4-4-2-4-4-4-4-4-4-4-2-4-4-4|4-4-4-4-2-4-4-4-4-4-4-4-5-5-5-5| X4 

And I think that's about it...  
First tab, so, rate, and comment any corrections you have. I am open to any and all corrections. 
		  

Full key step upFull key step up
Half key step upHalf key step up
Half key step downHalf key step down
Full key step downFull key step down
hide glossary

See also:

tabs Mymp - Closer I Get To You tabs Versailles Philharmonic Quintet - Vampire tabs Mymp - Tibok Ng Puso tabs Mymp - Eternal Flame (solo ver 2) tabs Flowers Travellin - Satori tabs Mymp - When I Dream
e-chords

Other versions:

tabs Yousei Teikoku - Kokou No Sousei Genesis Of Solitude
auto scroll beats size up size down change color hide chords drawings
tab show chords e-chords YouTube Clip e-chords hide all tabs e-chords go to top tab

share