Yngwie Malmsteen

Perpetual Tab

Yngwie Malmsteen

Difficulty: nolevelnolevel

by Du+Hast

tuner correct add songbook print version text version save to e-mail
chordsukulelecavacokeyboardtabbassdrumsharmonicsflute Guitar Pro
close

there isn't a video lesson for this song

chords

Perpetual

  		#----------------------------------PLEASE NOTE---------------------------------# 
#This file is the author's own work and represents their interpretation of the # 
#song. You may only use this file for private study, scholarship, or research. # 
#------------------------------------------------------------------------------## 
From: [email protected] (Judy Letostak) 
 
Yngwie Malmsteen "Perpetual" 
from Fire and Ice 
[email protected] 
Judy Letostak 
 
 
|----------|-------------------------------------------------|-------------| 
|----------|-------------------------------------------------|-------------| 
|----------|-------------------------------------6~-----6--9-|-5-------4---| 
|----------|-------------------------5-----5--8------8-------|-5-------5---| 
|----------|----------4--7-----4--7-----7--------------------|-3-------5---| 
|---3/15\--|-0--3--6--------6--------------------------------|-0-------3---| 
 
         w/delay 
           1/2                          1 1/2 
|-------|--14b--rb14-----19-|-18tr19-----------|----------14p12bf---14-----| 
|-------|-------------------|-----------14b~---|--rb14---------------------| 
|-------|-------------------|------------------|---------------------------| 
|-4-----|-------------------|------------------|---------------------------| 
|-4-----|-------------------|------------------|---------------------------| 
|-2-----|-------------------|------------------|---------------------------| 
 
~ w/bar 
|------------------|---12bf--rb12---|----------|---------------------------| 
|------------------|----------------|----------|---------------------------| 
|------------------|----------------|----------|-5~----------------4-------| 
|--5~----------5---|----------------|----------|-5~----------------5-------| 
|--3~----------5---|-4--------------|----------|-3~----------------5-------| 
|--0~----------3---|-2--------------|--15\-----|-0~----------------3-------| 
 
 
|-------------------------------------------|------------------------------- 
|-------------------------------------------|------------------------------- 
|-------------------------------------------|------------------------------- 
|-------4--5--4-----------------4--------5--|-------4--5--4----------------- 
|----------------4--------------4--------5--|----------------4-------------- 
|-0--2--------------3--0--2--2-----2--2-----|-0--2--------------3--0--2--2-- 
 
 
--------------|-------------------------------------------|----------------- 
--------------|-------------------------------------------|----------------- 
--------------|-------------------------------------------|----------------- 
--4--------2--|-------4--5--4-----------------4--------5--|----------------- 
--4--------2--|----------------4--------------4--------5--|----------4--7--- 
-----2--2-----|-0--2--------------3--0--2--2-----2--2-----|-0--3--6--------- 
 
 
----------------------------------| 
----------------------------------| 
-----------------------6-----6----| 
-----------5-----5--8-----8-----8-| 
-----4--7-----7-------------------| 
--6-------------------------------| 
 
    1/2                                    1/2 
|---18b--rb18~--\14-14p12----------------|---------------------------------| 
|-------------------------15-14-15-14----|---------------------------------| 
|-------------------------------------16-|-15b--rb15~--12-12-15-15-/-------| 
|----------------------------------------|---------------------------------| 
|----------------------------------------|---------------------------------| 
|----------------------------------------|---------------------------------| 
|                                        |                                 | 
|                                        |                                 | 
|----------------------------------------|---------------------------------| 
|----------------------------------------|---------------------------------| 
|----------------------------------------|---------------------------------| 
|----------------------------------------|---------------------------------| 
|--4--5---2--4---------------------------|--4--5---2--4------14\-----------| 
|--2--3---0--2------------------x--x-----|--2--3---0--2--------------------| 
 
  1/2                                     1/2 
|-18b--rb18~--\14-14p12-----------------|----------------------------------| 
|-----------------------15-14-15-14-----|----------------------------------| 
|-----------------------------------16--|-15b--15----12-12-15-15-/---------| 
|---------------------------------------|----------------------------------| 
|---------------------------------------|----------------------------------| 
|---------------------------------------|----------------------------------| 
|                                       |                                  | 
|                                       |                                  | 
|---------------------------------------|----------------------------------| 
|---------------------------------------|----------------------------------| 
|---------------------------------------|----------------------------------| 
|---------------------------------------|----------------------------------| 
|-4--5---2--4----------------14\--------|--4--5---2--4---------------------| 
|-2--3---0--2---------------------------|--2--3---0--2--------14\----------| 
 
 
|-19-18-19-12-19----19----15----19------------------------------------------| 
|----------------19----17----15----14tr15~--14-15-17-19-19p17-15-14---------| 
|---------------------------------------------------------------------------| 
|---------------------------------------------------------------------------| 
|---------------------------------------------------------------------------| 
|---------------------------------------------------------------------------| 
|                                                                           | 
|                                                                           | 
|---------------------------------------------------------------------------| 
|---------------------------------------------------------------------------| 
|---------------------------------------------------------------------------| 
|---------------------------------------------------------------------------| 
|-4------------5------------2----------4------------------------------------| 
|-2------------3------------0----------2---------------14\------------------| 
 
                                           1 1/2   1/2   1 1/2 
|-19-18-19-15-19----19----15----19---------21b----rb21---21b-------21\-----| 
|----------------19----17----15----14tr15----------------------------------| 
|--------------------------------------------------------------------------| 
|--------------------------------------------------------------------------| 
|--------------------------------------------------------------------------| 
|--------------------------------------------------------------------------| 
|                                                                          | 
|                                                                          | 
|--------------------------------------------------------------------------| 
|--------------------------------------------------------------------------| 
|--------------------------------------------------------------------------| 
|--------------------------------------------------------9-----------------| 
|--4-------------5-------2------------4-----------------10----10\----------| 
|--2-------------3-------0------------2------------------------------------| 
 
 
|-/19-18-19-15-19----19----15----19----------------------------------------| 
|-----------------19----17----15----14tr15--14-15-17-19-19p17-15-14--------| 
|--------------------------------------------------------------------------| 
|--------------------------------------------------------------------------| 
|--------------------------------------------------------------------------| 
|--------------------------------------------------------------------------| 
|                                                                          | 
|                                                   pick scrapes           | 
|--------------------------------------------------------------------------| 
|--------------------------------------------------------------------------| 
|---------------------------------------------------x\---------------------| 
|---------------------------------------------------x\---------------------| 
|--4---------------5-----------2-------4-----------------------------------| 
|--2---------------3-----------0-------2-----------------------------------| 
 
   1/2 
|------------------------12-14-15p14p12----------|-------------------------- 
|--14b------14--12-14-15----------------15p14p12-|-------------------------- 
|--15b------15-----------------------------------|-14-12p11----------------- 
|------------------------------------------------|----------14-12p11-------- 
|------------------------------------------------|-------------------14----- 
|------------------------------------------------|-------------------------- 
|                                                | 
|                                                | 
|------------------------------------------------|-------------------------- 
|------------------------------------------------|-------------------------- 
|-------------------------6--------6------9------|-------------------------- 
|-----------------5---5-8---8--------------------|-------------------------- 
|-------4-7---4-7---7----------------------------|--9----------------------- 
|-0-3-6-----6------------------------------------|--7----------------------- 
 
 
-----------10---------------| 
----12bf--------12bf~---12--| 
----------------------------| 
----------------------------| 
-0--------------------------| 
----------------------------| 
                            | 
                            | 
----------------------------| 
----------------------------| 
-----11~-------11~----------| 
----------------------------| 
----------------------------| 
----------------------------| 
 
 
Guitar solo 
 
|----------/15--14-15-12-15----15----15-15-15--------------------14|19p14--- 
|-12~-12\-------------------15----14----12-----12tr11~--------15---|-------- 
|----------------------------------------------------------16------|-------- 
|------------------------------------------------------------------|-------- 
|------------------------------------------------------------------|-------- 
|------------------------------------------------------------------|-------- 
 
 
----------12-14p10----10p7-------------------------------------------------| 
-15----15----------12------10bf--rb10p9p7----------------------------------| 
----16------------------------------------10p9p7----9~------7-9-11---------| 
-------------------------------------------------9------/9-----------------| 
---------------------------------------------------------------------------| 
---------------------------------------------------------------------------| 
 
  1/2 
|--------------6tr7---9/15p14-12-------------------------------|------------ 
|--------------------------------15p14p12-11-------------------|------------ 
|-11b--p9-11~--------------------------------14p12p11----------|------------ 
|-----------------------------------------------------14p12p11-|----------16 
|--------------------------------------------------------------|-14-16-17--- 
|--------------------------------------------------------------|------------ 
 
 
-------------------------14bf-rb14p17~|-17p15p14----15p14------------------- 
--------------------------------------|----------17-------17p15p14----15p14- 
--16bf--rb16---------11---------------|----------------------------16------- 
--------------16\14-------------------|------------------------------------- 
--------------------------------------|------------------------------------- 
--------------------------------------|------------------------------------- 
 
 
----------14-18p14-------------------|------------------------------14h15p14 
-------14----------14----------------|------------------------14-15--------- 
-16-15----------------15-------------|---------------11-14h15--------------- 
-------------------------16-14\11-14-|-12~--11-12h14------------------------ 
-------------------------------------|-------------------------------------- 
-------------------------------------|-------------------------------------- 
 
 
-p12----------12---------------|-------------------------------------------| 
-----15p14p12-12--15bf---12-15-|-------12----------------------------------| 
-------------------------------|--14bf-----14bf~--------------------0------| 
-------------------------------|-------------------------------------------| 
-------------------------------|-------------------------------------------| 
-------------------------------|-------------------------------------------| 
  
        1 1/2 
|-20~---21b------rb21--|---------------------------------------------------| 
|----------------------|---------------------------------------------------| 
|----------------------|---------------------------------------------------| 
|----------------------|-------4--5--4-----------------4--------5----------| 
|----------------------|----------------4--------------4--------5----------| 
|----------------------|-0--2--------------3--0--2--2-----2--2-------------| 
 
 
|-------------------------------------------|------------------------------- 
|-------------------------------------------|------------------------------- 
|-------------------------------------------|------------------------------- 
|-------4--5--4-----------------4--------2--|-------4--5--4----------------- 
|----------------4--------------4--------2--|----------------4-------------- 
|-0--2--------------3--0--2--2-----2--2-----|-0--2--------------3--0--2--2-- 
 
 
--------------------|------------------------------------------------------| 
--------------------|------------------------------------------------------| 
--------------------|-------------------------------------6~----6--9-------| 
--4--------------5--|-------------------------5-----5--8-----8-------------| 
--4--------------5--|----------4--7-----4--7-----7-------------------------| 
-----2--2--2--2-----|-0--3--6--------6-------------------------------------| 
 
  1/2                                       1/2 
|-18b--rb18-18~-\14-14p12----------------|---------------------------------| 
|-------------------------15-14-15-14----|---------------------------------| 
|-------------------------------------16-|-15b--rb15-15~--12-12-15-15------| 
|----------------------------------------|----------------------------16/--| 
|----------------------------------------|---------------------------------| 
|----------------------------------------|---------------------------------| 
 
  1/2                                       1/2 
|-18b--rb18-18~--\14-14p12----------------|--------------------------------| 
|--------------------------15-14-15-14----|--------------------------------| 
|--------------------------------------16-|-15b---rb15-15~--12-12-15-15~---| 
|-----------------------------------------|--------------------------------| 
|-----------------------------------------|--------------------------------| 
|-----------------------------------------|--------------------------------| 
 
 
|-19-18-19-15-19----19----15----19-----------------------------------------| 
|----------------19----17----15----14tr15--14-15-17-19-19p17-15-14---------| 
|--------------------------------------------------------------------------| 
|--------------------------------------------------------------------------| 
|--------------------------------------------------------------------------| 
|--------------------------------------------------------------------------| 
 
                                            1 1/2   1/2   1 1/2 
|-19-18-19-15-19----19----15----19----------21b----rb21---b21--\-----------| 
|----------------19----17----15----14tr15----------------------------------| 
|--------------------------------------------------------------------------| 
|--------------------------------------------------------------------------| 
|--------------------------------------------------------------------------| 
|--------------------------------------------------------------------------| 
 
 
|-19-18-19-15-19----19\---------------14-15p14p12--------------------------- 
|----------------19------/14-12-14-15-------------15p14-12------------------ 
|----------------------------------------------------------15p14p12--------- 
|-------------------------------------------------------------------16p14p12 
|--------------------------------------------------------------------------- 
|--------------------------------------------------------------------------- 
 
 
-----------| 
-----------| 
-----------| 
-----------| 
-16p14p12--| 
-----------| 
 
 
|--------------------------------------------------|----------6--9-----6--9- 
|--------------------------------------------------|-8-----8--------8------- 
|-------------------------------------6~-----6--9--|----9------------------- 
|-------------------------5-----5--8------8--------|------------------------ 
|----------4--7-----4--7-----7---------------------|------------------------ 
|-0--3--6--------6---------------------------------|------------------------ 
 
                                     1 1/2 
--9/12------9--12--15------12--15\-|-21b----rb21--20~\---------------------| 
--------11-------------14----------|---------------------------------------| 
-----------------------------------|---------------------------------------| 
-----------------------------------|---------------------------------------| 
-----------------------------------|---------------------------------------| 
-----------------------------------|---------------------------------------| 
 
                                                 1 1/2 
|-----------14tr15~----(14)\---------------|-------------------------------- 
|------------------------------------------|-----14b------rb14---12p11------ 
|------------------------------------------|-------------------------------- 
|------------------------------------------|-------------------------------- 
|------------------------------------------|-------------------------------- 
|------------------------------------------|-------------------------------- 
|                                          | 
|                                          | 
|------------------------------------------|-------------------------------- 
|------------------------------------------|-------------------------------- 
|------11-12-11-------------11-12-11-------|------11-12-11-------------11-12 
|---11----------11--------7----------5-12--|---11----------11--------7------ 
|-9----------------10-7-9------------5-----|-9----------------10-9-7-------- 
|------------------------------------3-----|-------------------------------- 
 
 
-------------|-------------------------------------------------------------| 
-------------|-------------------------------------------------------------| 
-------------|-------------------------------------------------------------| 
-------------|-------------------------------------------------------------| 
-------------|-------------------------------------------------------------| 
-------------|-------------------------------------------------------------| 
             |                                                             | 
             |                                                             | 
-------------|-------------------------------------------------------------| 
-------------|-------------------------------------------------------------| 
-11----------|-------11-12-11-------------11-12-11-------------------------| 
-----2--9----|----11----------11--------7----------2--9--------------------| 
-----2--7----|--9----------------10-7-9------------2--7--------------------| 
-----0-------|-------------------------------------0-----------------------| 
 
  1 1/2 
|-21b----21\----------12h14h15p14|p12--------------------------------------- 
|------------12-14h15------------|----15p14-12------------------------------ 
|--------------------------------|-------------15p14p12--------------------- 
|--------------------------------|----------------------16p14----------12--- 
|--------------------------------|----------------------------16-14h16------ 
|--------------------------------|------------------------------------------ 
|                                | 
|w/bar                           | 
|--------------------------------|------------------------------------------ 
|--------------------------------|------------------------------------------ 
|--------------------4-----------|------------------------------------------ 
|-5~-----------------5-----------|----------------------4----------5----4--- 
|-3~-----------------5-----------|------------------------------------------ 
|-0~-----------------3-----------|-0-----------2---------------------------- 
 
 
----------------------12h14-15p14p12---------------------------------------- 
-------------12h14h15----------------15p14p12------------------------------- 
-------12h15----------------------------------15p14-12p11------------------- 
-14h16----------------------------------------------------14-12p11----11---- 
-------------------------------------------------------------------14------- 
---------------------------------------------------------------------------- 
 
 
---------------------------------------------------------------------------- 
---------------------------------------------------------------------------- 
---------------------------------------------------------------------------- 
---------------------------------------------------------------------------- 
--------4------------------------------------------------------------------- 
--------------------3-----------0----------2-----------------2------2------- 
 
                                                                        1 1/2 
------------------|---------------------------------14h15p14p12----------21b- 
------------------|-11~--12-14p11-12-14-15p12h14h15-------------15p14p12----- 
-----------12-----|---------------------------------------------------------- 
--11-12-14--------|---------------------------------------------------------- 
------------------|---------------------------------------------------------- 
------------------|---------------------------------------------------------- 
                  | 
                  | 
------------------|---------------------------------------------------------- 
------------------|---------------------------------------------------------- 
------------------|---------------------------------------------------------- 
------------------|--------4--5--4------------------------------------------- 
------5-----------|----------------------4----------------------------------- 
--2---3-----------|--0--2--------------------3----0------2----------------2-- 
 
        1 1/2 
--rb21--21b-----rb21p17-|-21p18----21\18p15----18-15p12----14h15p14p12-14p12- 
------------------------|-------20----------17----------14------------------- 
------------------------|---------------------------------------------------- 
------------------------|---------------------------------------------------- 
------------------------|---------------------------------------------------- 
------------------------|---------------------------------------------------- 
                        | 
                        | 
------------------------|---------------------------------------------------- 
------------------------|---------------------------------------------------- 
------------------------|----continue similar rhythm pattern----------------- 
------------------------|---------------------------------------------------- 
--------------------2---|---------------------------------------------------- 
----2-----------2---0---|---------------------------------------------------- 
 
 
----------------------------14h15p14p12----------------14h15p14p12-12-------| 
-15p14-15p14p12----12h14h15-------------15p14p12-14h15---------------14-15bf| 
----------------15----------------------------------------------------------| 
----------------------------------------------------------------------------| 
----------------------------------------------------------------------------| 
----------------------------------------------------------------------------| 
 
 
|-----12--------------------------------------------------------------------- 
|-15~----15p14p12-15p14p12-11h12h14-15p14-12-11-15\14-12p11----12p11----11--- 
|-----------------------------------------------------------12-------12------ 
|---------------------------------------------------------------------------- 
|---------------------------------------------------------------------------- 
|---------------------------------------------------------------------------- 
 
                                 w/delay 
-------------------------------|------------------------------12-14-15------| 
-------------------------------|-------------12---11-12-14-15---------------| 
-12p11----12p11-------11-------|----------11--------------------------------| 
-------14-------14p12----14bf~-|--\4/14-0-----------------------------------| 
-------------------------------|--------------------------------------------| 
-------------------------------|--------------------------------------------| 
 
                                                      1/2  1/2-1 1/2  1/2  1/2 
|-18-15h18-19-21-18-19-21-18-------15---------------|-21b--21b-------rb21-21b| 
|----------------------------20p19----17--17bf~--\--|------------------------| 
|---------------------------------------------------|------------------------| 
|---------------------------------------------------|------------------------| 
|---------------------------------------------------|------------------------| 
|---------------------------------------------------|------------------------| 
 
 
|-12/14-12---------|-------------------------------------------------------- 
|----------14p12-x-|-------------------------------------------------------- 
|------------------|-16p15----16p15----------------------------------------- 
|------------------|-------16-------16-14h16-16-16--17p16-16-16--11--------- 
|------------------|-------------------------------------------------13--9-- 
|------------------|-------------------------------------------------------- 
 
 
--------------|-18tr21--15tr18-12tr15-9tr12-6tr9-3tr6--0-------------------| 
--------------|----------------------------------------0-------------------| 
--------------|------------------------------------------------------------| 
--------------|------------------------------------------------------------| 
-----------7--|------------------------------------------------------------| 
--9--6--2--0--|------------------------------------------------------------| 
 
 
|-18tr21-15tr18-12tr15-9tr12-6tr9--0--3p0--3--0-|-0h2p0----------14p12------ 
|----------------------------------0--3p0-----0-|-------2p0--/14-------14p12 
|-----------------------------------------------|--------------------------- 
|-----------------------------------------------|--------------------------- 
|-----------------------------------------------|--------------------------- 
|-----------------------------------------------|--------------------------- 
 
                                               1/2 
----12-15-19p18-15-14-------15-19-19bf--rb19-|-18b-rb18-b18-rb18-b18-18~---- 
-14-------------------15-15------------------|------------------------------ 
---------------------------------------------|------------------------------ 
---------------------------------------------|------------------------------ 
---------------------------------------------|------------------------------ 
---------------------------------------------|------------------------------ 
 
 
-------12-|-14-12-----12---------------------------------------------------- 
-19\14----|-------/14----15-14-12-15-14-12----15p14-12----15p14-12-15-14-12- 
----------|--------------------------------15----------15------------------- 
----------|----------------------------------------------------------------- 
----------|----------------------------------------------------------------- 
----------|----------------------------------------------------------------- 
 
 
----------------------------------------------------------|-12h14p12----12-- 
----15p14-12----15p14-12----15p14-12----15-14-12----14-15-|----------15----- 
-15----------15----------15----------15----------15-------|----------------- 
----------------------------------------------------------|----------------- 
----------------------------------------------------------|----------------- 
----------------------------------------------------------|----------------- 
 
 
---------------------------------------------------------------------------- 
-15-14-12p11-14p12-11-12p11----11------------------------------------------- 
----------------------------12----12-11-12-11-------------------12-11h12p11- 
----------------------------------------------14-12p11-11\12-14------------- 
---------------------------------------------------------------------------- 
---------------------------------------------------------------------------- 
 
 
-------|-------------------------------------------------------------------- 
-------|---------------11-14-11-12p10-12p11--------------------------------- 
----11-|-12~--11h12-14----------------------14-12-14p12-11----11------------ 
-14----|---------------------------------------------------14----14-12p11--- 
-------|-------------------------------------------------------------------- 
-------|-------------------------------------------------------------------- 
 
 
----------|--------------14-14-15------------------------------------------- 
----------|----/15-15-15----------15-14-12p11------------------------------- 
----------|-11--------------------------------14-12p11-------------11------- 
-11h12h14-|--------------------------------------------14-11h12h14----14bf-- 
----------|----------------------------------------------------------------- 
----------|----------------------------------------------------------------- 
 
 
-----------------|-------------------------------------------12p9----9------ 
-----------------|-------------------------14p11----11----11------11---11--- 
-----------------|-------------15p12-------------12----12------------------- 
-rb14-14bf-------|-14p11----11-------14-11---------------------------------- 
-------------14--|-------13------------------------------------------------- 
-----------------|---------------------------------------------------------- 
 
 
-9-14/15p12-12----12-18p15-15-15-15-21p18-|-19-----18p15----15----15p12----- 
---------------14-------------------------|----20\-------17----17-------14-- 
------------------------------------------|--------------------------------- 
------------------------------------------|--------------------------------- 
------------------------------------------|--------------------------------- 
------------------------------------------|--------------------------------- 
 
                                                                         1/2 
-12-14-15-15-15-15~----14h15-12-15-----15----15----15----------|--------14b- 
--------------------------------15--15----14----12----11-12-14-|-15bf~------ 
---------------------------------------------------------------|------------ 
---------------------------------------------------------------|------------ 
---------------------------------------------------------------|------------ 
---------------------------------------------------------------|------------ 
 
 
--rb14--12----------------------|------------------------------------------- 
-----------15-14-12p11----------|-------------------------------12h14-15---- 
-----------------------14-12p11-|----------------------11h12-14------------- 
--------------------------------|-14p12p11----11h12-14---------------------- 
--------------------------------|----------14------------------------------- 
--------------------------------|------------------------------------------- 
 
           1 1/2 
-12h14~----21b----rb21f---21--21~--|-21p18----19p15----18p15--------15~----- 
-----------------------------------|-------20-------17-------17-14---------- 
-----------------------------------|---------------------------------------- 
-----------------------------------|---------------------------------------- 
-----------------------------------|---------------------------------------- 
-----------------------------------|---------------------------------------- 
 
 
-14h15-12-15----15----15----15-------------12--|-14-12-14-12h14p12-10-9-9--- 
-------------15----14----12----11/12-14-15-----|---------------------------- 
-----------------------------------------------|---------------------------- 
-----------------------------------------------|---------------------------- 
-----------------------------------------------|---------------------------- 
-----------------------------------------------|---------------------------- 
 
 
-10\-7-6-7-3-6-2-3-0------|-0-2--------------------------------------------| 
-------------------0--2-3-|-----3bf----rb3---------------------------------| 
--------------------------|------------------3*~---------------------------| 
--------------------------|------------------------------------------------| 
--------------------------|------------------------------------------------| 
--------------------------|------------------------------------------------| 
 
 
 
 
 

	  

auto scroll beats size up size down change color hide chords drawings
tab show chords e-chords YouTube Clip e-chords hide all tabs e-chords go to top tab

share with facebook

Search Paypal