Yngwie Malmsteen

Overture 1622 Tab

Yngwie Malmsteen

Difficulty: EasyEasy

tuner correct add songbook print version text version save to e-mail
chordsukulelecavacokeyboardtabbassdrumsharmonicsflute Guitar Pro
close

there isn't a video lesson for this song

chords

Overture 1622

  		 
|-------7-9h10p9-7-6-7~~~~~~~|(7)~~~~~~~~~~~~~~~~~~~~~~~~~~~~~~~~~~~~~~| 
|-----7----------------------|-----------------------------------------| 
|---7------------------------|-----------------------------------------| 
|-9--------------------------|-----------------------------------------| 
|----------------------------|-----------------------------------------| 
|----------------------------|-----------------------------------------| 
|                            |                                         | 
|-----------------------10-9-|-----------------------------------------| 
|----------------------------|-12---12-11------------------------------| 
|----------------------------|-----------12---12-11-9---9---------9----| 
|----------------------------|---------------------------12-11-12---11-| 
|----------------------------|-----------------------------------------| 
|----------------------------|-----------------------------------------| 
 
 
 
|---------9-10h12p10-9--9~~~~~~~|(9)~~~~~~~~~~~~~~~~~~~~~~~~~~~~-12-14-| 
|---------------------12--------|--------------------------------------| 
|----9-12-----------------------|--------------------------------------| 
|-11----------------------------|--------------------------------------| 
|-------------------------------|--------------------------------------| 
|-------------------------------|--------------------------------------| 
|                               |                                      | 
|-------------------------12-10-|-9---9--------------------------------| 
|-------------------------------|------12-11---11----------------------| 
|-------------------------------|----------------12-11~~~~~~~~~~~~~~~~~| 
|-8~~~~~~~~~~~~~~~~~~~~~--------|--------------------------------------| 
|-------------------------------|--------------------------------------| 
|-------------------------------|--------------------------------------| 
 
 
 
|-15~~~~~~~~~~~~~~---12-|-14~~~~~~~~~~~~------|------------------------| 
|-----------------15----|---------------12-14-|-15~~~~~~~~~~~~~~~~~~~~~| 
|-----------------------|---------------------|------------------------| 
|-----------------------|---------------------|------------------------| 
|-----------------------|---------------------|------------------------| 
|-----------------------|---------------------|------------------------| 
|                       |                     |                        | 
|----15-17-19~~~~~~~~~~~|---------------------|--------14-13~~~~~~~~~~~| 
|-----------------------|----12-14-15~~~~~~~~~|(15)--15----------------| 
|-X---------------------|-X-------------------|------------------------| 
|-----------------------|---------------------|------------------------| 
|-----------------------|---------------------|------------------------| 
|-----------------------|---------------------|------------------------| 
 
 
 
|-----------------------------------------------------------------| 
|-----------------------------------------------------------------| 
|---------------------------------9-11-12----------11-14-12-11----| 
|-------------------9-11-11-12-12---------11-12-14-------------14-| 
|---------9----9-10-----------------------------------------------| 
|-9-10-12---12----------------------------------------------------| 
|                                                                 | 
|-13b14\----------------------------------------------------------| 
|-----------------------------------------------------------------| 
|-----------------------------------------------------------------| 
|-----------------------------------------------------------------| 
|-----------------------------------------------------------------| 
|-----------------------------------------------------------------| 
 
 
 
|---------------------------------15-14-12--------14-15-14-12---------------| 
|------11-12-14-15-14-12-15-14-12---------15-14-12-----------14-12-14-15-12-| 
|-11-12---------------------------------------------------------------------| 
|---------------------------------------------------------------------------| 
|---------------------------------------------------------------------------| 
|-------------------guitar 2 does nothing in this bar-----------------------| 
 
*************************************************************************** 
*********************************** B ************************************* 
*************************************************************************** 
 
|-------7-9h10p9-7-6-7-------|-------7-9h10p9-7-6-7--------------------| 
|-----7----------------------|-----7-----------------------------------| 
|---7------------------------|---7-------------------------------------| 
|-9--------------------------|-9---------------------------------------| 
|----------------------------|-----------------------------------------| 
|----------------------------|-----------------------------------------| 
|                            |                                         | 
|-----------------------10-9-|-----------------------------------------| 
|----------------------------|-12---12-11------------------------------| 
|----------------------------|-----------12---12-11-9---9---------9----| 
|----------------------------|---------------------------12-11-12---11-| 
|----------------------------|-----------------------------------------| 
|----------------------------|-----------------------------------------| 
 
 
 
|---------9-10h12p10-9--9~~~~~~~|---------9-10h12p10-9--9~~~~~~~-12-14-| 
|---------------------12--------|---------------------12---------------| 
|----9-12-----------------------|----9-12------------------------------| 
|-11----------------------------|-11-----------------------------------| 
|-------------------------------|--------------------------------------| 
|-------------------------------|--------------------------------------| 
|                               |                                      | 
|-------------------------12-10-|-9---9--------------------------------| 
|-------------------------------|------12-11---11----------------------| 
|-------------------------------|----------------12-11~~~~~~~~~~~~~~~~~| 
|-8~~~~~~~~~~~~~~~~~~~~~--------|--------------------------------------| 
|-------------------------------|--------------------------------------| 
|-------------------------------|--------------------------------------| 
 
 
 
|-15~~~~~~~~~~~~~~---12-|-14~~~~~~~~~~~~------|------------------------| 
|-----------------15----|---------------12-14-|-15~~~~~~~~~~~~~~-14-12-| 
|-----------------------|---------------------|------------------------| 
|-----------------------|---------------------|------------------------| 
|-----------------------|---------------------|------------------------| 
|-----------------------|---------------------|------------------------| 
|                       |                     |                        | 
|----15-17-19~~~~~~~~~~~|---------------------|--------14-13~~~~~~~~~~~| 
|-----------------------|----12-14-15~~~~~~~~~|(15)--15----------------| 
|-X---------------------|-X-------------------|------------------------| 
|-----------------------|---------------------|------------------------| 
|-----------------------|---------------------|------------------------| 
|-----------------------|---------------------|------------------------| 
 
 
 
|-------------------------------| 
|-11tr12~~~~~~~~~~~~~~~~12------| 
|-------------------------------| 
|-------------------------------| 
|-------------------------------| 
|-------------------------------| 
|                               | 
|-9tr10~~~~~~~~~~~~~~~~~~~~~~~~-| 
|-------------------------------| 
|-------------------------------| 
|-------------------------------| 
|-------------------------------| 
|-------------------------------| 
 
*************************************************************************** 
*********************************** C ************************************* 
*************************************************************************** 
 
|-------7-9h10p9-7-6-7-------|-------7-9h10p9-7-6-7--------------------| 
|-----7----------------------|-----7-----------------------------------| 
|---7------------------------|---7-------------------------------------| 
|-9--------------------------|-9---------------------------------------| 
|----------------------------|-----------------------------------------| 
|----------------------------|-----------------------------------------| 
|                            |                                         | 
|-----------------------10-9-|-----------------------------------------| 
|-12--.----------------------|-12---12-11------------------------------| 
|----------------------------|-----------12---12-11-9---9---------9----| 
|----------------------------|---------------------------12-11-12---11-| 
|----------------------------|-----------------------------------------| 
|----------------------------|-----------------------------------------| 
 
 
 
|---------9-10h12p10-9--9~~~~~~~|---------9-10h12p10-9--9~~~~~~~-12-14-| 
|---------------------12--------|---------------------12---------------| 
|----9-12-----------------------|----9-12------------------------------| 
|-11----------------------------|-11-----------------------------------| 
|-------------------------------|--------------------------------------| 
|-------------------------------|--------------------------------------| 
|                               |                                      | 
|-------------------------12-10-|-9---9--------------------------------| 
|-------------------------------|------12-11---11----------------------| 
|-------------------------------|----------------12-11~~~~~~~~~~~~~~~~~| 
|-8~~~~~~~~~~~~~~~~~~~~~--------|--------------------------------------| 
|-------------------------------|--------------------------------------| 
|-------------------------------|--------------------------------------| 
 
 
 
|----------10--14-12-10-9-10----|-10--9-----------------10--9----------------| 
|-------12----------------------|-------12-11-----------------12-11----------| 
|----11-------------------------|-------------12--------------------12-------| 
|-12----------------------------|--------------------------------------------| 
|-------------------------------|--------------------------------------------| 
|-------------------------------|--------------------------------------------| 
|                               |                                            | 
|----------10--14-12-10-9-10----|-14-12-10----10--------14-12-10----10-------| 
|-------12----------------------|----------14--------------------14----------| 
|----11-------------------------|--------------------------------------------| 
|-12----------------------------|--------------------------------------------| 
|-------------------------------|--------------------------------------------| 
|-------------------------------|--------------------------------------------| 
 
 
 
|--9----------------------------------------------|---------------------| 
|----12-11----------------------------------------|---------------------| 
|----------12-11--9-------------------------------|---------------------| 
|-------------------12-11--9--8-------------------|---------------------| 
|-------------------------------10--9--7----------|---------------------| 
|----------------------------------------10--9--7-|-6----7----1----2----| 
|                                                 |                     | 
|-12-10--9----------------------------------------|---------------------| 
|----------12-11----------------------------------|---------------------| 
|----------------12-11--9-------------------------|---------------------| 
|-------------------------12-11--9--8-------------|----------------8----| 
|-------------------------------------10--9--7----|-----------11--------| 
|----------------------------------------------10-|-9----10-------------| 
 
*************************************************************************** 
*********************************** D ************************************* 
*************************************************************************** 
 
|------------|-0--------------|-5------|-6------------------| 
|-3----------|-0--------------|-5------|-7------------------| 
|-0----------|-1--------------|-6------|-6------------------| 
|------------|----------------|--------|--------------------| 
|------------|----------------|--------|--------------------| 
|------------|----------------|--------|--------------------| 
|            |                |        |                    | 
|-7~~~~~~~~~~|-7~~~~~7h10----7|/9~~~~~~|-9~~~~~~~9h12------9| 
|-gtr 3------|----------------|--------|--------------------| 
|------------|----------------|--------|--------------------| 
|-9~~~~~~~~~~|-9~~~~~7h12----9|11~~~~~~|11~~~~~~11h14-----11| 
|-gtr 2------|----------------|--------|--------------------| 
|------------|----------------|--------|--------------------| 
 
 
 
|------------------5----------------|5------5------|3------4------| 
|7-----------------5----------------|7------4------|5------6------| 
|7-----------------6----------------|7------5------|4------6------| 
|9----------------------------------|-------4------|--------------| 
|-----------------------------------|--------------|--------------| 
|-----------------------------------|--------------|--------------| 
|                                   |              |              | 
|10----10-12-14-10-12----12-14-15-12|14~~~~~20~~~~~|19~~~~~16~~~~~| 
|-----------------------------------|-------13~~~~~|12~~~~~~~~~~~~| 
|------------11-------------11-12---|11~~~~~-------|--------------| 
|12----12-14----12-14----14-------14|--------------|--------------| 
|-----------------------------------|--------------|--------------| 
|-----------------------------------|--------------|--------------| 
 
IF SECOND TIME, REPLACE LAST BAR WITH THE FOLLOWING AND THEN GOTO F 
 
|-3------------4---------------| 
|-5------------6---------------| 
|-4------------6---------------| 
|------------------------------| 
|------------------------------| 
|------------------------------| 
|                              | 
|-19~~~~~~~~~~-16------.-18b19-| 
|-12~~~~~~~~~\-guitar 2 out ---| 
|------------------------------| 
|------------------------------| 
|------------------------------| 
|------------------------------| 
 
*************************************************************************** 
*********************************** E ************************************* 
*************************************************************************** 
 
|---------------------------------|---------------------------------| 
|---------------------------------|---------------------------------| 
|---------------------------------|---------------------------------| 
|---------------------------2-4-5-|---------------------------2-4-5-| 
|---------------------2-4-5-------|---------------------2-4-5-------| 
|-2---2-2-----0-2-3-6-------------|-2---2-2-----0-2-3-6-------------| 
|                                 |                                 | 
|-16b18---------------------------|(18)~~~~~~~~~~~~~\--guitar 3 out-| 
|-17b19---------------------------|(19)~~~~~~~~~~~~~\--guitar 2 out-| 
|---------------------------------|---------------------------------| 
|---------------------------------|---------------------------------| 
|---------------------------------|---------------------------------| 
|---------------------------------|---------------------------------| 
 
t 
 
|---------------------------------|-3-2-----------------------------| 
|---------------------------------|-----5-3-2-----------------------| 
|---------------------------------|-----------4-3-------------------| 
|---------------------------2-4-5-|---------------5-4-2-------------| 
|---------------------2-4-5-------|---------------------5-4-2-1-----| 
|-2---2-2-----0-2-3-6-------------|-----------------------------3-2-| 
 
 
|---------------------------------|---------------------------------| 
|---------------------------------|---------------------------------| 
|---------------------------------|---------------------------------| 
|---------------------------2-4-5-|---------------------------2-4-5-| 
|---------------------2-4-5-------|---------------------2-4-5-------| 
|-2---2-2-----0-2-3-6-------------|-2---2-2-----0-2-3-6-------------| 
 
 
|---------------------------------|-3-2-----------------------------| 
|---------------------------------|-----5-3-2-----------------------| 
|---------------------------------|-----------4-3-------------------| 
|---------------------------2-4-5-|---------------5-4--2------------| 
|---------------------2-4-5-------|----------------------5--4--2----| 
|-2---2-2-----0-2-3-6-------------|-------------------------------1-| 
 
GOTO B 
 
*************************************************************************** 
*********************************** F ************************************* 
*************************************************************************** 
 
|---------------------------------| 
|---------------------------------| 
|---------------------------------| <-- Guitar 1 plays this until G 
|---------------------------2-4-5-| 
|---------------------2-4-5-------| 
|-2---2-2-----0-2-3-6-------------| 
 
Guitar 3: 
 
|rb18-------15p14|(14)~~~~~~~-18b19| 
|----------------|-----------------| 
|----------------|-----------------| 
|----------------|-----------------| 
|----------------|-----------------| 
|----------------|-----------------| 
 
|rb18--15--18-19-15-18-19-18-15-21-15-18-19-18-15-21-15-| 
|-------------------------------------------------------| 
|-------------------------------------------------------| 
|-------------------------------------------------------| 
|-------------------------------------------------------| 
|-------------------------------------------------------| 
 
|-18-19-18-15-18-15-18-19-18-15-21-15-18-19-18-15-21-15-18-21-18-15-21-18-| 
|-------------------------------------------------------------------------| 
|-------------------------------------------------------------------------| 
|-------------------------------------------------------------------------| 
|-------------------------------------------------------------------------| 
|-------------------------------------------------------------------------| 
 
|-15-15-16-15--15--15---------X---------12-14h15p14-12-| 
|------------17--17--17-15-14--12-14-15----------------| 
|------------------------------------------------------| 
|------------------------------------------------------| 
|------------------------------------------------------| 
|------------------------------------------------------| 
 
|-------------------12-14-15-14-12-14-12-------12-12----------------15-14-12-| 
|-15-14-12-11-14-15----------------------15-15-------15-12----12-15----------| 
|----------------------------------------------------------15----------------| 
|----------------------------------------------------------------------------| 
|----------------------------------------------------------------------------| 
|----------------------------------------------------------------------------| 
 
|-15-14-12--14--------12-----------------------------------------------| 
|---------15--12-15-14--15-14-12-15-14-12-11-14-12-11-12-12--11--------| 
|--------------------------------------------------------------12-11---| 
|-------------------------------------------------------------------14-| 
|----------------------------------------------------------------------| 
|----------------------------------------------------------------------| 
 
|-----------------------------------12-----12-14-12--------14-15-14-| 
|------11-12-14-11-12-14-15-12-14-15--14-15--------15-14-12---------| 
|-11-12-------------------------------------------------------------| 
|-------------------------------------------------------------------| 
|-------------------------------------------------------------------| 
|-------------------------------------------------------------------| 
 
|-12------------------------------------------------| 
|---15-14-12-11------14-12-11-----------------------| 
|--------------14-11---------12-11------------------| 
|---------------------------------14-12-11----------| 
|-----------------------------------------14--------| 
|---------------------------------------------------| 
 
|---------------------14|15-14-15-12-15--15--15--15-14-15--15-14-15-12-15--15| 
|-----15b17---rb15-14---|--------------15--14--12--------12--------------15--| 
|-----------------------|----------------------------------------------------| 
|-----------------------|----------------------------------------------------| 
|(14)-------------------|----------------------------------------------------| 
|-----------------------|----------------------------------------------------| 
 
|--15--15--15-14-15-12-15--15--15--15|-----------------14-15-14-12--------/21| 
|14--12--12--------------15--14--12--|11tr12~~~12-14-15-----------15-14-12---| 
|------------------------------------|---------------------------------------| 
|------------------------------------|---------------------------------------| 
|------------------------------------|---------------------------------------| 
|------------------------------------|---------------------------------------| 
 
|(21)---15-14-12--------15/21-21\15-15/21|21\15-15\14-14---12-14-15-19-| 
|---------------15-14-12-----------------|-----------------------------| 
|----------------------------------------|-----------------------------| 
|----------------------------------------|-----------------------------| 
|----------------------------------------|-----------------------------| 
|----------------------------------------|-----------------------------| 
 
|-18/19\18-15--15-17-14-15-14-17-15-17-14-15-14-17-15-17-14-15-14-17-| 
|------------17------------------------------------------------------| 
|--------------------------------------------------------------------| 
|--------------------------------------------------------------------| 
|--------------------------------------------------------------------| 
|--------------------------------------------------------------------| 
 
*************************************************************************** 
*********************************** G ************************************* 
*************************************************************************** 
 
|-------7-9h10p9-7-6-7~~~~~~~|(7)~~~~~~~~~~~~~~~~~~~~~~~~~~~~~~~~~~~~~~| 
|-----7----------------------|-----------------------------------------| 
|---7------------------------|-----------------------------------------| 
|-9--------------------------|-----------------------------------------| 
|----------------------------|-----------------------------------------| 
|----------------------------|-----------------------------------------| 
|                            |                                         | 
|-17b19~~~~\------------10-9-|-----------------------------------------| 
|--gtr 3---------------gtr 2-|-12---12-11------------------------------| 
|----------------------------|-----------12---12-11-9---9---------9----| 
|----------------------------|---------------------------12-11-12---11-| 
|----------------------------|-----------------------------------------| 
|----------------------------|-----------------------------------------| 
 
 
 
|---------9-10h12p10-9--9~~~~~~~|(9)~~~~~~~~~~~~~~~~~~~~~~~~~~~~-12-14-| 
|---------------------12--------|--------------------------------------| 
|----9-12-----------------------|--------------------------------------| 
|-11----------------------------|--------------------------------------| 
|-------------------------------|--------------------------------------| 
|-------------------------------|--------------------------------------| 
|                               |                                      | 
|-------------------------12-10-|-9---9--------------------------------| 
|-------------------------------|------12-11---11----------------------| 
|-------------------------------|----------------12-11~~~~~~~~~~~~~~~~~| 
|-8~~~~~~~~~~~~~~~~~~~~~--------|--------------------------------------| 
|-------------------------------|--------------------------------------| 
|-------------------------------|--------------------------------------| 
 
 
 
|-15~~~~~~~~~~~~~~---12-|-14~~~~~~~~~~~~------|------------------------| 
|-----------------15----|---------------12-14-|-15~~~~~~~~~~~~~~~~~~~~~| 
|-----------------------|---------------------|------------------------| 
|-----------------------|---------------------|------------------------| 
|-----------------------|---------------------|------------------------| 
|-----------------------|---------------------|------------------------| 
|                       |                     |                        | 
|----15-17-19~~~~~~~~~~~|---------------------|--------14-13~~~~~~~~~~~| 
|-----------------------|----12-14-15~~~~~~~~~|(15)--15------------gtr-| 
|-X---------------------|-X-------------------|---------------------2--| 
|-----------------------|---------------------|--------------------out-| 
|-----------------------|---------------------|------------------------| 
|-----------------------|---------------------|------------------------| 
 
 
|---------------------------------------------------| 
|------------------------------------------------10-| 
|-----------------------------------------9-11-12---| 
|---------------------------8-9-11-9-11-12----------| 
|--------------7-10-9-7-9-10------------------------| 
|-7--9-7-9-7-10-------------------------------------| 
 
|--------------------------12-14-15-14-12--------14-15-12---------14|19-----| 
|---------------------11-12--------------15-14-12--------15-12-15---|-------| 
|---------11-----11-12----------------------------------------------|-------| 
|-11-12-14--12-14---------------------------------------------------|-------| 
|-------------------------------------------------------------------|-------| 
|-------------------------------------------------------------------|-------| 
 
_______________________________________________________ 
Contribuição: Taino Vieira([email protected]) 

	  

auto scroll beats size up size down change color hide chords drawings
tab show chords e-chords YouTube Clip e-chords hide all tabs e-chords go to top tab

share with facebook

Search Paypal