Yngwie Malmsteen

Caprici Di Diablo Tab

Yngwie Malmsteen

Difficulty: ExpertExpert

by VsWorld

tuner correct add songbook print version text version save to e-mail
chordsukulelecavacokeyboardtabbassdrumsharmonicsflute Guitar Pro
close

there isn't a video lesson for this song

chords

Caprici Di Diablo

  		\
.= PM 


 
E|---13-15-17--13-15-19--13-15-17--13-15-21--13-15-17--13-15-19--13-15-17--13| 
B|15--------15--------15--------15--------15--------15--------15--------15--| 
G|---------------------------------------------------------------------------| 
D|---------------------------------------------------------------------------| 
A|---------------------------------------------------------------------------| 
E|---------------------------------------------------------------------------| 
 


 
E|15-21~-21-19-17-20-18-16-19-17-15-18-16-14-17-15-13-16-14-12-15-13-11-14-12| 
B|---------------------------------------------------------------------------| 
G|---------------------------------------------------------------------------| 
D|---------------------------------------------------------------------------| 
A|---------------------------------------------------------------------------| 
E|---------------------------------------------------------------------------| 
 


 
E|-10--------------------------------------------------------------------17~-| 
B|---14-12-10--------------------------------------------12-17p12------------| 
G|-----------13-11-10----------------------------------13--------13----------| 
D|-------------------12-11-9-------------------------14------------14--------| 
A|--------------------------12-11-9-8--------------14----------------14------| 
E|------------------------------------10-9-7~-12h15--------------------15----| 
 


 
E|-17-15-13-16-14-12-15-13-11-14-12-10---------------------------------------| 
B|-------------------------------------14-12-10~-10--10-12-14~---------------| 
G|-------------------------------------------------10------------------------| 
D|---------------------------------------------------------------------------| 
A|---------------------------------------------------------------------------| 
E|---------------------------------------------------------------------------| 
 


 
E|---13-15-17--13-15-19--13-15-17--13-15-21--13-15-17--13-15-19--13-15-17--13| 
B|15--------15--------15--------15--------15--------15--------15--------15--| 
G|---------------------------------------------------------------------------| 
D|---------------------------------------------------------------------------| 
A|---------------------------------------------------------------------------| 
E|---------------------------------------------------------------------------| 
 


 
E|15-21~-21-19-17-20-18-16-19-17-15-18-16-14-17-15-13-16-14-12-15-13-11-14-12| 
B|---------------------------------------------------------------------------| 
G|---------------------------------------------------------------------------| 
D|---------------------------------------------------------------------------| 
A|---------------------------------------------------------------------------| 
E|---------------------------------------------------------------------------| 
 


 
E|-10--------------------------------------------------------------------17~-| 
B|---14-12-10--------------------------------------------12-17p12------------| 
G|-----------13-11-10----------------------------------13--------13----------| 
D|-------------------12-11-9-------------------------14------------14--------| 
A|--------------------------12-11-9-8--------------14----------------14------| 
E|------------------------------------10-9-7~-12h15--------------------15----| 
 


 
E|-17-15-13-16-14-12-15-13-11-14-12-10---------------------------------------| 
B|-------------------------------------14-12-10~-----------------------------| 
G|-------------------------------------------------10--10-14p12p10-----------| 
D|---------------------------------------------------10-----------10-12~-----| 
A|---------------------------------------------------------------------------| 
E|---------------------------------------------------------------------------| 
 


 
E|--10------10-12-17p15p13-15p13p11-10------10-12-15p13p11-13p11p9-10------10| 
B|----11--11--------------------------11--11-------------------------11--11--| 
G|------12------------------------------12-----------------------------12----| 
D|---------------------------------------------------------------------------| 
A|---------------------------------------------------------------------------| 
E|---------------------------------------------------------------------------| 
 


 
E|-13p11p9-11p9p7-10------10------10-14~-------------------------------------| 
B|------------------11--11--11--11-------------------------------------------| 
G|--------------------12------12---------------------------------------------| 
D|---------------------------------------------------------------------------| 
A|---------------------------------------------------------------------------| 
E|---------------------------------------------------------------------------| 
 



 
E|--10------10-12-17p15p13-15p13p11-10------10-12-15p13p11-13p11p9-10------10| 
B|----11--11--------------------------11--11-------------------------11--11--| 
G|------12------------------------------12-----------------------------12----| 
D|---------------------------------------------------------------------------| 
A|---------------------------------------------------------------------------| 
E|---------------------------------------------------------------------------| 
 


 
E|-13p11p9-11p9p7-10------10------10tr11--21-19-17-20-18-16-19-17-15-18-16-14| 
B|------------------11--11--11--11-------------------------------------------| 
G|--------------------12------12---------------------------------------------| 
D|---------------------------------------------------------------------------| 
A|---------------------------------------------------------------------------| 
E|---------------------------------------------------------------------------| 
 


 
E|17-15-13-16-14-12-15-13-11-14-12-10-14-12-10-15~--17h19b-19-18-16----------| 
B|-----------------------------------------------------------------19-18-16--| 
G|---------------------------------------------------------------------------| 
D|---------------------------------------------------------------------------| 
A|---------------------------------------------------------------------------| 
E|---------------------------------------------------------------------------| 
 


 
E|----------------------------/19-18-16-----------------/19-18-16------------| 
B|-------------------------------------19-18-16------------------19-18-16----| 
G|19-17-16-------------------------------------19-17-16------------------19--| 
D|--------19-17-16-----------------------------------------------------------| 
A|----------------19-18-16---------------------------------------------------| 
E|------------------------19~------------------------------------------------| 
 


 
E|--------/19-18-16----------------------------------------------------------| 
B|-----------------19-18-16--------------------------------------------------| 
G|17-16--------------------19-17-16------------------------------------------| 
D|---------------------------------19-17-16----------------------------------| 
A|-----------------------------------------19-18-16--------------------------| 
E|-------------------------------------------------19-17-16~-15-17-18-17-15--| 
 
                                                             .. .. .. .. .. 

 
E|---------------------------------------------------------------------------| 
B|-------------------------------------------------------------------15-17-18| 
G|-----------------------------------------------15-17-18-17-15-17-18--------| 
D|--------------------------15-17-18-17-15-17-18-----------------------------| 
A|------15-17-18-17-15-17-18-------------------------------------------------| 
E|-17-18---------------------------------------------------------------------| 
 
   .. .... .. .. .. .. .. .... .. .. .. .. .. .... .. .. .. .. .. .... .. .. 

 
E|--10------10-12-17p15p13-15p13p11-10------10-12-15p13p11-13p11p9-10------10| 
B|----11--11--------------------------11--11-------------------------11--11--| 
G|------12------------------------------12-----------------------------12----| 
D|---------------------------------------------------------------------------| 
A|---------------------------------------------------------------------------| 
E|---------------------------------------------------------------------------| 
 


 
E|-13p11p9-11p9p7-10------10------10-14~-------------------------------------| 
B|------------------11--11--11--11-------------------------------------------| 
G|--------------------12------12---------------------------------------------| 
D|---------------------------------------------------------------------------| 
A|---------------------------------------------------------------------------| 
E|---------------------------------------------------------------------------| 
 



 
E|--10------10-12-17p15p13-15p13p11-10------10-12-15p13p11-13p11p9-10------10| 
B|----11--11--------------------------11--11-------------------------11--11--| 
G|------12------------------------------12-----------------------------12----| 
D|---------------------------------------------------------------------------| 
A|---------------------------------------------------------------------------| 
E|---------------------------------------------------------------------------| 
 


 
E|-13p11p9-11p9p7-10------10------10tr11--21-19-17-20-18-16-19-17-15-18-16-14| 
B|------------------11--11--11--11-------------------------------------------| 
G|--------------------12------12---------------------------------------------| 
D|---------------------------------------------------------------------------| 
A|---------------------------------------------------------------------------| 
E|---------------------------------------------------------------------------| 
 


 
E|17-15-13-16-14-12-15-13-11-14-12-10-14-12-10-15~--17h19b-19-18-16----------| 
B|-----------------------------------------------------------------19-18-16--| 
G|---------------------------------------------------------------------------| 
D|---------------------------------------------------------------------------| 
A|---------------------------------------------------------------------------| 
E|---------------------------------------------------------------------------| 
 


 
E|----------------------------/19-18-16-----------------/19-18-16------------| 
B|-------------------------------------19-18-16------------------19-18-16----| 
G|19-17-16-------------------------------------19-17-16------------------19--| 
D|--------19-17-16-----------------------------------------------------------| 
A|----------------19-18-16---------------------------------------------------| 
E|------------------------19~------------------------------------------------| 
 


 
E|--------/19-18-16----------------------------------------------------------| 
B|-----------------19-18-16--------------------------------------------------| 
G|17-16--------------------19-17-16------------------------------------------| 
D|---------------------------------19-17-16----------------------------------| 
A|-----------------------------------------19-18-16--------------------------| 
E|-------------------------------------------------19-17-16~-15-17-18-17-15--| 
 
                                                             .. .. .. .. .. 

 
E|---------------------------------------------------------------------------| 
B|-------------------------------------------------------------------15-17-18| 
G|-----------------------------------------------15-17-18-17-15-17-18--------| 
D|--------------------------15-17-18-17-15-17-18-----------------------------| 
A|------15-17-18-17-15-17-18-------------------------------------------------| 
E|-17-18---------------------------------------------------------------------| 
 
   .. .... .. .. .. .. .. .... .. .. .. .. .. .. .. .. .. .. .. .. .... .. .. 

 
E|-----------------15-17-19-21-19-17-20-18-16-19-17-15-18-16-14-17-15-13-16--| 
B|---------15-17-18----------------------------------------------------------| 
G|-15-17-18------------------------------------------------------------------| 
D|---------------------------------------------------------------------------| 
A|---------------------------------------------------------------------------| 
E|---------------------------------------------------------------------------| 
 


 
E|-14-12-15-13-11-14-12-10---------------------------------------------------| 
B|------------------------14-12-10-------------------------------------------| 
G|--------------------------------13-11-10-----------------------------------| 
D|----------------------------------------12-11-9----------------------------| 
A|-----------------------------------------------12-11-9-8-------------------| 
E|---------------------------------------------------------10-8-7~-----------| 
 



 
E|---------------------------------------------------------------------------| 
B|17-16-14-16-17-16~--/19-18-16h18p16-14-16--/17-16-14-16-17-16~-/19-18-----| 
G|17-16-14-16-17-16~--/19-18-16h18p16-14-16--/17-16-14-16-17-16~-/19-18-----| 
D|---------------------------------------------------------------------------| 
A|---------------------------------------------------------------------------| 
E|---------------------------------------------------------------------------| 
 


 
E|-----------------------------------------------------10-15~----------------| 
B|-16h18p16-14-16-----------10-15p10-----------------12------------------10--| 
G|-16h18p16-14-16---------12--------12-------------12------------------12----| 
D|----------------------12------------12---------12------------------12------| 
A|--------------------12----------------12~-10h14------------------12--------| 
E|---------------10h14----------------------------------------10h14----------| 
 


 
E|------------15b-12--------------------------------------12-17-19-21-19-17--| 
B|15p10-------------15-12-12~------------10-------------13-------------------| 
G|------12-12~-------------------------12--12---------14---------------------| 
D|-----------------------------------12------12-----14-----------------------| 
A|---------------------------------12----------12h15-------------------------| 
E|----------------------------10h14------------------------------------------| 
 


 
E|-20-18-16-19-17-15-18-16-14-17-15-13-16-14-12-15-13-11-14-12-10------------| 
B|---------------------------------------------------------------14-12-10----| 
G|-----------------------------------------------------------------------13--| 
D|---------------------------------------------------------------------------| 
A|---------------------------------------------------------------------------| 
E|---------------------------------------------------------------------------| 
 


 
E|--------------------------------------------------------------------10-15~-| 
B|-----------------------------------------10-15p10-----------------12-------| 
G|-11-9----------------------------------12--------12-------------12---------| 
D|-----12-11-9-------------------------12------------12---------12-----------| 
A|-------------12-11-9-8-------------12----------------12~-10h14-------------| 
E|----------------------10-8-7~-10h14----------------------------------------| 
 


 
E|---------------------------15b-12-------------------------------------12-17| 
B|------------10-15p10-------------15-12-12~-----------10-------------13-----| 
G|----------12--------12-12~-------------------------12--12---------14-------| 
D|--------12---------------------------------------12------12-----14---------| 
A|------12---------------------------------------12----------12h15-----------| 
E|-10h14------------------------------------10h14----------------------------| 
 


 
E|-17-16-14------------------------------------------------------------------| 
B|---------17-16-14----------------------------------------------------------| 
G|------------------17-16-14----------15-19p17p15-18p16p14-17p15p13-16p14p12-| 
D|---------------------------17-16-14----------------------------------------| 
A|---------------------------------------------------------------------------| 
E|-----------------------------------0---------------------------------------| 
 


 
E|------------12-17p12--------------------12-17-12-17--------------------12--| 
B|----------13--------13----------------13-----------13----------------13----| 
G|--------14------------14------------14---------------14------------14------| 
D|------14----------------14--------14-------------------14--------14--------| 
A|-12h15--------------------15-12h15-----------------------15-12h15----------| 
E|---------------------------------------------------------------------------| 
 


 
E|15-12-15-17-17b-17-15-13-16-14-12-15-13-11-14-12-10-14-12-10-14-12-10------| 
B|---------------------------------------------------------------------14-12-| 
G|---------------------------------------------------------------------------| 
D|---------------------------------------------------------------------------| 
A|---------------------------------------------------------------------------| 
E|---------------------------------------------------------------------------| 
 


 
E|---------------------------------------------------------------------------| 
B|10-------------------------------------------------------------------------| 
G|--13-11-10-13-11-10--------------------------------------------------------| 
D|-------------------12-11-9-------------------------------------------------| 
A|--------------------------12-11-9-8-------------------8-9-11-12-8-9-11-12--| 
E|------------------------------------10-8-7-8-10-7-8-10---------------------| 
 


 
E|---------------------------------------------------------------------------| 
B|-------------------------------------------------------------10-15~--------| 
G|--------------------------------------------------------9-12---------------| 
D|9-11-12-9-11-12-11-9---------------------------------/12-------------------| 
A|--------------------12-11-9-8-12-11-9-8------------------------------------| 
E|----------------------------------------10-8-7-10-8-7----------------------| 
 


 
E|--10------10-12-17p15p13-15p13p11-10------10-12-15p13p11-13p11p9-10------10| 
B|----11--11--------------------------11--11-------------------------11--11--| 
G|------12------------------------------12-----------------------------12----| 
D|---------------------------------------------------------------------------| 
A|---------------------------------------------------------------------------| 
E|---------------------------------------------------------------------------| 
 


 
E|-13p11p9-11p9p7-10------10------10-14~-------------------------------------| 
B|------------------11--11--11--11-------------------------------------------| 
G|--------------------12------12---------------------------------------------| 
D|---------------------------------------------------------------------------| 
A|---------------------------------------------------------------------------| 
E|---------------------------------------------------------------------------| 
 



 
E|--10------10-12-17p15p13-15p13p11-10------10-12-15p13p11-13p11p9-10------10| 
B|----11--11--------------------------11--11-------------------------11--11--| 
G|------12------------------------------12-----------------------------12----| 
D|---------------------------------------------------------------------------| 
A|---------------------------------------------------------------------------| 
E|---------------------------------------------------------------------------| 
 


 
E|-13p11p9-11p9p7-10------10------10tr11--21-19-17-20-18-16-19-17-15-18-16-14| 
B|------------------11--11--11--11-------------------------------------------| 
G|--------------------12------12---------------------------------------------| 
D|---------------------------------------------------------------------------| 
A|---------------------------------------------------------------------------| 
E|---------------------------------------------------------------------------| 
 


 
E|17-15-13-16-14-12-15-13-11-14-12-10-14-12-10-15~--17h19b-19-18-16----------| 
B|-----------------------------------------------------------------19-18-16--| 
G|---------------------------------------------------------------------------| 
D|---------------------------------------------------------------------------| 
A|---------------------------------------------------------------------------| 
E|---------------------------------------------------------------------------| 
 


 
E|----------------------------/19-18-16-----------------/19-18-16------------| 
B|-------------------------------------19-18-16------------------19-18-16----| 
G|19-17-16-------------------------------------19-17-16------------------19--| 
D|--------19-17-16-----------------------------------------------------------| 
A|----------------19-18-16---------------------------------------------------| 
E|------------------------19~------------------------------------------------| 
 


 
E|---------------------------------19-18-16----------------------------------| 
B|------------------------------------------19-18-16-------------------------| 
G|-17-16--------------------------------------------19-17-16-----------------| 
D|------19-17-16--------------------------------------------19-17-16---------| 
A|---------------19-18-16-------------------------------------------19-18-16-| 
E|-----------------------19-17-16--------------------------------------------| 
 


 
E|--------------19-17-16-17-19-17-16-17-19-17-16--------------16-17-19-17-16-| 
B|----------------------------------------------19-17-16-17-19---------------| 
G|---------------------------------------------------------------------------| 
D|---------------------------------------------------------------------------| 
A|---------------------------------------------------------------------------| 
E|-19--17-16bWH--------------------------------------------------------------| 
 


 
E|-17-19-17-16-17-19-17-16-17-19-17-16---------------------------------------| 
B|------------------------------------19-17-16--------19-17-16-19-17-16------| 
G|--------------------------------------------19-17-16-----------------19-17-| 
D|---------------------------------------------------------------------------| 
A|---------------------------------------------------------------------------| 
E|---------------------------------------------------------------------------| 
 


 
E|---------------------------------------------------------------------------| 
B|---------------------------------------------------------------------------| 
G|-16---------19-17-16-19-17-16----------------------------------------------| 
D|---19-17-16------------------19-17-16--------------------------------------| 
A|--------------------------------------19-17-16--------------------16-17-19-| 
E|----------------------------------------------19-17-16~WH-16-17-19---------| 
 


 
E|----------------------------------16-17-19-16-17-19p17-16-17-19p17-21b-----| 
B|-----------------16-17-19-16-17-19-----------------------------------------| 
G|---------16-17-19----------------------------------------------------------| 
D|-16-17-19------------------------------------------------------------------| 
A|---------------------------------------------------------------------------| 
E|---------------------------------------------------------------------------| 
 


 
E|---------------16-19-16-17--16-19-16-17-16-19-16-17----15b-15b-15b-15b-12--| 
B|19-17-16-17-19--------------------------------------19b--------------------| 
G|---------------------------------------------------------------------------| 
D|---------------------------------------------------------------------------| 
A|---------------------------------------------------------------------------| 
E|---------------------------------------------------------------------------| 
 


 
e|15h17p15p12--------------12-15-17~-17-15-12-15-17-19-17-15-17-19-17-15-17--| 
B|-----------17-15-12-15-17--------------------------------------------------| 
G|---------------------------------------------------------------------------| 
D|---------------------------------------------------------------------------| 
A|---------------------------------------------------------------------------| 
E|---------------------------------------------------------------------------| 
 


 
E|-19-17-15-17-15-12-15-17-15-12---------------12-15-19-15-12-19-15-12-17-15-| 
B|------------------------------17-15-12-15-17~------------------------------| 
G|---------------------------------------------------------------------------| 
D|---------------------------------------------------------------------------| 
A|---------------------------------------------------------------------------| 
E|---------------------------------------------------------------------------| 
 


 
E|-12-17-15-12---------------12-15-17-15-12-15-19-15-12---------------12-15--| 
B|------------17-15-12-15-17----------------------------17-15-12-15-17-------| 
G|---------------------------------------------------------------------------| 
D|---------------------------------------------------------------------------| 
A|---------------------------------------------------------------------------| 
E|---------------------------------------------------------------------------| 
 


 
E|-19-15-12--------------12-15-19~-------------------------------------------| 
B|---------17-15-12-15-17----------------------------------------------------| 
G|---------------------------------------------------------------------------| 
D|---------------------------------------------------------------------------| 
A|---------------------------------------------------------------------------| 
E|---------------------------------------------------------------------------| 
 

 
E|---13-15-21--13-15-19--13-15-17--13-15-21--13-15-19--13-15-17--13-15-21--13| 
B|15--------15--------15--------15--------15--------15--------15--------15--| 
G|---------------------------------------------------------------------------| 
D|---------------------------------------------------------------------------| 
A|---------------------------------------------------------------------------| 
E|---------------------------------------------------------------------------| 
 


 
E|15-21~-21-19-17-20-18-16-19-17-15-18-16-14-17-15-13-16-14-12-15-13-11-14-12| 
B|---------------------------------------------------------------------------| 
G|---------------------------------------------------------------------------| 
D|---------------------------------------------------------------------------| 
A|---------------------------------------------------------------------------| 
E|---------------------------------------------------------------------------| 
 


 
E|-10/-/-/-/-------------------------------------------------------------17~-| 
B|-------------------------------------------------------12-17p12------------| 
G|-----------------------------------------------------13--------13----------| 
D|---------------------------------------------------14------------14--------| 
A|-------------------------------------------------14----------------14------| 
E|--------------------------------------------12h15--------------------15----| 
 



 
E|16-14-12-15-13-11-14-12-10~---------10-12-9~-------------------------------| 
B|-------------------------------10-12---------------------------------------| 
G|--------------------------/9-12--------------------------------------------| 
D|---------------------------------------------------------------------------| 
A|---------------------------------------------------------------------------| 
E|---------------------------------------------------------------------------| 
 



 
E|---13-15-17--13-15-19--13-15-17--13-15-21--13-15-17--13-15-19--13-15-17--13| 
B|15--------15--------15--------15--------15--------15--------15--------15--| 
G|---------------------------------------------------------------------------| 
D|---------------------------------------------------------------------------| 
A|---------------------------------------------------------------------------| 
E|---------------------------------------------------------------------------| 
 


 
E|15-21~-21-19-17-20-18-16-19-17-15-18-16-14-17-15-13-16-14-12-15-13-11-14-12| 
B|---------------------------------------------------------------------------| 
G|---------------------------------------------------------------------------| 
D|---------------------------------------------------------------------------| 
A|---------------------------------------------------------------------------| 
E|---------------------------------------------------------------------------| 
 

 
E|-10------------------------------------------------------------------------| 
B|---14-12-10--------------------------------------------12-17p12------------| 
G|-----------13-11-10----------------------------------13--------13----------| 
D|-------------------12-11-9-------------------------14------------14--------| 
A|--------------------------12-11-9-8--------------14----------------14------| 
E|------------------------------------10-8-7~-12h15--------------------15----| 
 


 
E|-17p12-----------------------10-12-9~--------------------------------------| 
B|------13----------------10-12----------------------------------------------| 
G|--------14----------9-12---------------------------------------------------| 
D|----------14---------------------------------------------------------------| 
A|------------15-------------------------------------------------------------| 
E|--------------15-12~-------------------------------------------------------| 
 


 
E|---------------------------------------------------------------------------| 
B|17-16-14-16-17-16~--/19-18-16h18p16-14-16--/17-16-14-16-17-16~-/19-18-----| 
G|17-16-14-16-17-16~--/19-18-16h18p16-14-16--/17-16-14-16-17-16~-/19-18-----| 
D|---------------------------------------------------------------------------| 
A|---------------------------------------------------------------------------| 
E|---------------------------------------------------------------------------| 
 


 
E|-----------------------------------------------------10-15~----------------| 
B|-16h18p16-14-16-----------10-15p10-----------------12------------------10--| 
G|-16h18p16-14-16---------12--------12-------------12------------------12----| 
D|----------------------12------------12---------12------------------12------| 
A|--------------------12----------------12~-10h14------------------12--------| 
E|---------------10h14----------------------------------------10h14----------| 
 


 
E|------------15b-12--------------------------------------12-17-19-21-19-17--| 
B|15p10-------------15-12-12~------------10-------------13-------------------| 
G|------12-12~-------------------------12--12---------14---------------------| 
D|-----------------------------------12------12-----14-----------------------| 
A|---------------------------------12----------12h15-------------------------| 
E|----------------------------10h14------------------------------------------| 
 


 
E|-20-18-16-19-17-15-18-16-14-17-15-13-16-14-12-15-13-11-14-12-10------------| 
B|---------------------------------------------------------------14-12-10----| 
G|-----------------------------------------------------------------------13--| 
D|---------------------------------------------------------------------------| 
A|---------------------------------------------------------------------------| 
E|---------------------------------------------------------------------------| 
 


 
E|--------------------------------------------------------------------10-15~-| 
B|-----------------------------------------10-15p10-----------------12-------| 
G|-11-9----------------------------------12--------12-------------12---------| 
D|-----12-11-9-------------------------12------------12---------12-----------| 
A|-------------12-11-9-8-------------12----------------12~-10h14-------------| 
E|----------------------10-8-7~-10h14----------------------------------------| 
 


 
E|---------------------------15b-12-------------------------------------12-17| 
B|------------10-15p10-------------15-12-12~-----------10-------------13-----| 
G|----------12--------12-12~-------------------------12--12---------14-------| 
D|--------12---------------------------------------12------12-----14---------| 
A|------12---------------------------------------12----------12h15-----------| 
E|-10h14------------------------------------10h14----------------------------| 
 


 
E|-12-17-15-13-16-14-12-15-13-11-14-12-10------------------------------------| 
B|---------------------------------------14-12-10----------------------------| 
G|-----------------------------------------------13-11-10--------------------| 
D|-------------------------------------------------------12-11-9-------------| 
A|--------------------------------------------------------------12-11-9-8----| 
E|------------------------------------------------------------------------10-| 
 


 
E|---------------------------------------------------------------------------| 
B|---------------------------------------------------------------------------| 
G|---------------------------------------------------------------------------| 
D|-------------------9-11-12-11-9------------------------------9-11-12-11-9--| 
A|---------8-9-11-12-------------12-11-9-8------------8-9-11-12------------12| 
E|-8-7-8-10--------------------------------10-8-7-8-10-----------------------| 
 


 
E|--------------19~----------------------------------------------------------| 
B|---------------------------------------------------------------------------| 
G|---------------------------------------------------------------------------| 
D|---------------------------------------------------------------------------| 
A|-11-9-8--------------------------------------------------------------------| 
E|-------10-8-7~-------------------------------------------------------------| 
 



 
E|---13-15-17--13-15-19--13-15-17--13-15-21--13-15-17--13-15-19--13-15-17--13| 
B|15--------15--------15--------15--------15--------15--------15--------15--| 
G|---------------------------------------------------------------------------| 
D|---------------------------------------------------------------------------| 
A|---------------------------------------------------------------------------| 
E|---------------------------------------------------------------------------| 
 

 
E|19-21~---------------------------------------------------------------------| 
B|---------------------------------------------------------------------------| 
G|---------------------------------------------------------------------------| 
D|---------------------------------------------------------------------------| 
A|---------------------------------------------------------------------------| 
E|---------------------------------------------------------------------------| 
 


 
E|---13-15-17--13-15-19--13-15-17--13-15-21--13-15-17--13-15-19--13-15-17--13| 
B|15--------15--------15--------15--------15--------15--------15--------15--| 
G|---------------------------------------------------------------------------| 
D|---------------------------------------------------------------------------| 
A|---------------------------------------------------------------------------| 
E|---------------------------------------------------------------------------| 
 


 
E|-15-21~-21-19-17-20-18-16-19-17-15-18-16-15--------------------------------| 
B|---------------------------------------------------------------------------| 
G|--------------------------------------------Sorry about blank, gettin bored| 
D|-------------------------------------------tabbing this--------------------| 
A|---------------------------------------------------------------------------| 
E|---------------------------------------------------------------------------| 
 


 
E|17-15-13-16-14-12-15-13-11-14-12-10-14-12-10-15~--17h19b-19-18-16----------| 
B|-----------------------------------------------------------------19-18-16--| 
G|---------------------------------------------------------------------------| 
D|---------------------------------------------------------------------------| 
A|---------------------------------------------------------------------------| 
E|---------------------------------------------------------------------------| 
 


 
E|----------------------------/19-18-16-----------------/19-18-16------------| 
B|-------------------------------------19-18-16------------------19-18-16----| 
G|19-17-16-------------------------------------19-17-16------------------19--| 
D|--------19-17-16-----------------------------------------------------------| 
A|----------------19-18-16---------------------------------------------------| 
E|------------------------19~------------------------------------------------| 
 


 
E|---------------------------------19-18-16----------------------------------| 
B|------------------------------------------19-18-16-------------------------| 
G|-17-16--------------------------------------------19-17-16-----------------| 
D|------19-17-16--------------------------------------------19-17-16---------| 
A|---------------19-18-16-------------------------------------------19-18-16-| 
E|-----------------------19-17-16--------------------------------------------| 
 


 
E|---------------------------------------------------------------------------| 
B|---------------------------------------------------------------------------| 
G|-------------------------------------------------------------16-17-19-16-17| 
D|--------------------------------------------16-17-19-16-17-19--------------| 
A|---------------------------16-18-19-16-18-19-------------------------------| 
E|19-17-16~-16-17-19-16-17-19------------------------------------------------| 
 
            .................................................................. 

 
E|--------------------16-18-19-16-18-19-18-16--------------------------------| 
B|---16-18-19-16-18-19-----------------------19-18-16------------------------| 
G|-19------------------------------------------------19-17-16----------------| 
D|---------------------------------------------------------------------------| 
A|---------------------------------------------------------------------------| 
E|-----------------------------------------------------------0---------------| 
 
.............................. 
	  

auto scroll beats size up size down change color hide chords drawings
tab show chords e-chords YouTube Clip e-chords hide all tabs e-chords go to top tab

share with facebook

Search Paypal