Yngwie Malmsteen

home > Yngwie Malmsteen

5 Sinfonia De Beethoven Tab

Yngwie Malmsteen

Difficulty: IntermediateIntermediate

by abelamin

tuner correct add songbook print version text version save to e-mail
chordsukulelecavacokeyboardtabbassdrumsharmonicsflute Guitar Pro
chords

5 Sinfonia De Beethoven

  		 
e------------------------------| 
B------------------------------| 
G------------------7-7-7-4~~~~-| 
D-4-4-4-5p4-4-4----------------| 
A---------------5--------------| 
E------------------------------| 
 

 
e------------------------------| 
B------------------------------| 
G------------------9-9-9-6~~~~-| 
D-4-4-4-5p4-4-4----------------| 
A---------------4--------------| 
E------------------------------| 
 

 
e-----------------------| 
B-----------------------| 
G-11-11-9-7--11-11-9-7--| 
D-----------------------| 
A-----------------------| 
E-----------------------| 
 

 
e-----------------------| 
B-----------------------| 
G-11-11--9--7--4--------| 
D-11-11--9--7--4---4----| 
A-9--9---7--5--2---4----| 
E------------------2----| 
 

 
e---------------------------------------------| 
B---------------------------------------------| 
G-12-12-12-9----------------------------------| 
D------------11-11-11-8-----------------------| 
A-----------------------10-10-10-7------------| 
E-----------------------------------2-2-2-2-2-| 
 

 
e----------------------------------------------------------------------------------------| 
B----------------------------------------------------------------------------------------| 
G-12-12-12-9------------------------------------------------------------4-6-7p6----7-9p8-| 
D------------11-11-11-8-------------------------------------9-11-12---5----------9-------| 
A-----------------------10-10-10-9-7-------------7-9-10--10------------------------------| 
E------------------------------------10-9-7---10-----------------------------------------| 
 

 
e------------------------------------------------------------------------------| 
B------------------------------------------------------------------------------| 
G----9-10p9------11-13p12-----12-14p13-----13-15p14-----14-15p14-----14-16~~~~-| 
D-11----------13-----------14-----------15-----------16-----------16-----------| 
A------------------------------------------------------------------------------| 
E------------------------------------------------------------------------------| 
 

 
e----------------------------------------------------------------------------------------| 
B-14h15p14h15p14h15p14h15p14--14~~~~---------------------------------------15-18-15------| 
G-------------------------------------/17-17p14----14-/17-20p17----17--/16-----------/18-| 
D-----------------------------------------------16--------------19-----------------------| 
A----------------------------------------------------------------------------------------| 
E----------------------------------------------------------------------------------------| 
 

 
e--------------------17-19bf~~~~~~~~~---------| 
B-17-20p17-----17-20--------------------------| 
G-----------19-----------------------------2--| 
D------------------------------------------2--| 
A------------------------------------------0--| 
E---------------------------------------------| 
 

 
e----------------------------------------------------------------------------------14-17b-| 
B---------9-10~~~~~--------------------7------7-8----7-8-8h10-10~~~-------------14--------| 
G-10-9-10-------------7---6-7-9----7-9------7-----------------------------14-16-----------| 
D-----------------------7--------7--------7--------7-------------------16-----------------| 
A-----------------------------------------------------------------------------------------| 
E-----------------------------------------------------------------------------------------| 
 

 
e-19-17-------------------------------------------------------------------------------| 
B-------20-20-19-17-19--20-19-17----19-17/15-----17-15/12-----14-12/10----12-10-------| 
G--------------------------------19-----------17-----------14----------12-------12-10-| 
D-------------------------------------------------------------------------------------| 
A-------------------------------------------------------------------------------------| 
E-------------------------------------------------------------------------------------| 
 

 
e----------------------------------------------| 
B----------------------------------------------| 
G-10h12p10----------------------------9-9-9----| 
D----------12p10h12p10h12p10----------7-7-7--7-| 
A----------------------------12-10-----------5-| 
E----------------------------------------------| 
 


 
e------------------------------------------| 
B------------------------------------------| 
G------------------------------------------| 
D-2-2-2--7---2-2-2--7---2-2-2--7---------4-| 
A-0-0-0--5---0-0-0--5---0-0-0--5--4-4-4--2-| 
E---------------------------------2-2-2----| 
 


 
e----------------------------------------------------------------------------------------| 
B-12-12-12-12-12-12-12--12-12-12-12-12-12-12--12-12-12-12-12-12-12--12-12-12-12-12-12-12-| 
G----------------------------------------------------------------------------------------| 
D----------------------------------------------------------------------------------------| 
A----------------------------------------------------------------------------------------| 
E----------------------------------------------------------------------------------------| 
 

 
e-----------------------------------------------------------------------------------------| 
B-13-13-13-13-13-13-13--13-13-13-13-13-13-13---13-13-13-13-13-13-13--13-13-13-13-13-13-13-| 
G-----------------------------------------------------------------------------------------| 
D-----------------------------------------------------------------------------------------| 
A-----------------------------------------------------------------------------------------| 
E-----------------------------------------------------------------------------------------| 
 

                             
 
e-------------------------19b----------------| 
B--------------------------------------------| 
G-6b--9b--11b--14b---18b---------------------| 
D--------------------------------------------| 
A--------------------------------------------| 
E--------------------------------------------| 
 


 
e-------------15p14-15p14-15p14-15p14--------------15p14-15p14-15p14-15p14--17-17---------| 
B-------14h15--------------------------------14h15--------------------------------20p19p17| 
G-14h15--------------------------------14h15----------------------------------------------| 
D-----------------------------------------------------------------------------------------| 
A-----------------------------------------------------------------------------------------| 
E-----------------------------------------------------------------------------------------| 
 

 
e-15-15-----------14-14----------12-12----------10-10-----------9-9---------7-7--------| 
B-------19p17p15--------17p15p14-------15p13p12-------14p12p10------12p10p9-----10p9p7-| 
G--------------------------------------------------------------------------------------| 
D--------------------------------------------------------------------------------------| 
A--------------------------------------------------------------------------------------| 
E--------------------------------------------------------------------------------------| 
 


 
e-5-5-------3-3------------7-----7---7----7----7----7---7----7---7-----7---7----7---7----7| 
B-----8p7p5-----7p5p3----------------------------------------------------9---10---9---10--| 
G----------------------/10----7----9---10----9---10---9---10---9---10---------------------| 
D-----------------------------------------------------------------------------------------| 
A-----------------------------------------------------------------------------------------| 
E-----------------------------------------------------------------------------------------| 
 

 
e------------------------------------------------------------------------------------------|  
B-9-12-14-15-12-14-15-17-14-15-17-19-15-17-19-20-17---------------------12-----------------| 
G----------------------------------------------------11-13-15-11--13-15----11-12-----------| 
D--------------------------------------------------------------------------------12-14--11-| 
A------------------------------------------------------------------------------------------|  
E------------------------------------------------------------------------------------------| 
 

 
e-------------------------------------------------------------------------------------| 
B----------------11-12~~~~~----12/------15-17-19-15--------------------------5-3------| 
G-----9-11-10-11-------------------------------------15-16-18-15---2-4-6-2-------4----| 
D-12-----------------------------------------------------------------------------4--4-| 
A--------------------------------------------------------------------------------2--4-| 
E-----------------------------------------------------------------------------------2-| 
 

                                                   
e-----------------------------------------------/------------------------------------------| 
B-/15-14-12-10-8-7-------------14bf-14bf---14bf/-14-14-14-14-14-14-------------------------| 
G---------------------------------------------------------------------11h12p11h12p11h12p11-| 
D-------------------5-4-2-0----------------------------------------------------------------| 
A------------------------------------------------------------------------------------------|  
E------------------------------------------------------------------------------------------| 
 

 
E--------------------------------------------------------------------------| 
B-11h12p11h12p11-----------------------------------------------------------| 
G----------------11h12p11h12p11-------9-9-9-9--6---/11-11-------/11-11-----| 
D-------------------------------12/---9-9-9-9--6----------12-----------12--| 
A-------------------------------------7-7-7-7--4---------------------------| 
E--------------------------------------------------------------------------| 
 

 
e---------------------------------| 
B---------------------------------| 
G-6-6-6-6-7--6-6-6-6-7--6-6-6-6-7-| 
D-6-6-6-6-7--6-6-6-6-7--6-6-6-6-7-| 
A-4-4-4-4-5--4-4-4-4-5--4-4-4-4-5-| 
E---------------------------------| 
 

 
e-------------------| 
B-------------------| 
G-6-7-6-7-6-7-6-7-6-| 
D-6-7-6-7-6-7-6-7-6-| 
A-4-5-4-5-4-5-4-5-4-| 
E-------------------| 
 

e--------------| 
B--------------| 
G-7------------| 
D-7--7---2-----| 
A-5--7---2-----| 
E----5---0-----| 
	  

Search Paypal
auto scroll beats size up size down change color hide chords drawings
tab show chords e-chords YouTube Clip e-chords hide all tabs e-chords go to top tab