Yellowcard

home > Yellowcard

Don't you forget about me Tab

Yellowcard

Difficulty: BeginnerBeginner

by fboy

tuner correct add songbook print version text version save to e-mail
chordsukulelecavacokeyboardtabbassdrumsharmonicsflute Guitar Pro
chords

Don't you forget about me

  		   Fm#                     E 
e|--------0~~---------0~~---------0~~------0~~------| 
B|--------0~~---------0~~---------0~~------0~~------| 
G|--2--2--2-(2)-2--2--2-(2)-1--1--1--1--1--1--1--0--| 
D|--4--4--4--4--4--4--4--0--2--2--2--2--2--2--2--0--| 
A|--4--4--4--4--4--4--4--0--2--2--2--2--2--2--2--0--|   
E|--2--2--2--2--2--2--2--0--0--0--0--0--0--0--0--0--| 
    !  !  !  V  !  !  !  V  !  !  !  V  !  !  !  V                   
                                                      
    Bsus                    Dsus 
e|--------0~~---------0~~---------0~~------0~~------| 
B|--------0~~---------0~~---------0~~------0~~------|   
G|--4--4--4-(4)-4--4--4-(4)-7--7--7--7--7--7--7--0--|   
D|--4--4--4--4--4--4--4--0--7--7--7--7--7--7--7--0--|   
A|--2--2--2--2--2--2--2--0--5--5--5--5--5--5--5--0--|   
E|-----------------------------------------------0--|  
    !  !  !  V  !  !  !  V  !  !  !  V  !  !  !  V     

    Fm#                     E 
e|--------0~~---------0~~---------0~~------0~~------| 
B|--------0~~---------0~~---------0~~------0~~------| 
G|--2--2--2-(2)-2--2--2-(2)-1--1--1--1--1--1--1--0--| 
D|--4--4--4--4--4--4--4--0--2--2--2--2--2--2--2--0--| 
A|--4--4--4--4--4--4--4--0--2--2--2--2--2--2--2--0--|   
E|--2--2--2--2--2--2--2--0--0--0--0--0--0--0--0--0--| 
    !  !  !  V  !  !  !  V  !  !  !  V  !  !  !  V        

    Bsus                    E 
e|--------0~~---------0~~---------0~~------0~~------| 
B|--------0~~---------0~~---------0~~------0~~------|   
G|--4--4--4-(4)-4--4--4-(4)-1--1--1--1--1--1--1--0--|   
D|--4--4--4--4--4--4--4--0--2--2--2--2--2--2--2--0--|   
A|--2--2--2--2--2--2--2--0--2--2--2--2--2--2--2--0--|   
E|--------------------------0--0--0--0--0--0--0--0--|  
    !  !  !  V  !  !  !  V  !  !  !  V  !  !  !  V                     

   

The Verse is just the same as the Intro Played 2 more times With the Vocals 

Verse: 

Fm#            E             Bsus           Dsus 
Won't you come see about me. I'll be alone. Dancing you know  
Fm#            E                  Bsus                E   
Tell me your troubles and doubts. givin me ev'rything inside and out 
Fm#                E                 Bsus                               Dsus 
Love's strange, so reel in the dark, think about the tender things that we're working on 
Fm#             E              Bsus                E            
Slow change can pull us apart, when the light gets into your heart 


Chorus: 

     1.Don't  You___             Forget   a-bout__    
   __2.Don't  You____            Forget   a-bout__  
e||--------0~~---------0~~---------0~~------0~~------| 
B||.-------0~~---------0~~---------0~~------0~~------| 
G||--2--2--2-(2)-2--2--2-(2)-1--1--1--1--1--1--1--0--| 
D||--4--4--4--4--4--4--4--0--2--2--2--2--2--2--2--0--| 
A||.-4--4--4--4--4--4--4--0--2--2--2--2--2--2--2--0--|   
E||--2--2--2--2--2--2--2--0--0--0--0--0--0--0--0--0--| 
    !  !  !  V  !  !  !  V  !  !  !  V  !  !  !  V        

1.  Me_____                 Don't,don't, don't ,don't                              
2.  Me________          ("Claire?"... More Dialogue from "The Breakfast Club") 
e|--------0~~---------0~~---------0~~------0~~------|| 
B|--------0~~---------0~~---------0~~------0~~-----.||  
G|--4--4--4-(4)-4--4--4-(4)-1--1--1--1--1--1--1--0--||   
D|--4--4--4--4--4--4--4--0--2--2--2--2--2--2--2--0--||   
A|--2--2--2--2--2--2--2--0--2--2--2--2--2--2--2--0-.||   
E|--------------------------0--0--0--0--0--0--0--0--||  
    !  !  !  V  !  !  !  V  !  !  !  V  !  !  !  V        

Break during Dialogue: 

e|--0~~---------------------------------------------| 
B|--7~~------------------7~~------7~~------7~~------| 
G|--7~~----------------------7~~-----7~~------------| 
D|--7~~---------------------------------7~~---7~~-0-| 
A|--5~~---(5)-(5)-(5)-----------------------------0-| 
E|------------------------------------------------0-| 

e|--0--0--0--0--0--0--0--0--0--0--0--0--0--0--0--0--| 
B|--2--2--2--2--2--2--2--2--2--2--2--2--2--2--2--0--| 
G|--2--2--2--2--2--2--2--2--2--2--2--2--2--2--2--0--| 
D|--2--2--2--2--2--2--2--2--2--2--2--2--2--2--2--0--| 
A|--0--0--0--0--0--0--0--0--0--0--0--0--0--0--0--0--| 
E|--------------------------------------------------| 

e|--------0-----------0-----------0-----------0--0--| 
B|--0--0--0--0--0--0--0--0--0--0--0--0--0--0--0--0--| 
G|--1--1--1--1--1--1--1--1--1--1--1--1--1--1--1--0--| 
D|--2--2--2--2--2--2--2--2--2--2--2--2--2--2--2--0--| 
A|--2--2--2--2--2--2--2--2--2--2--2--2--2--2--2--0--| 
E|--0--0--0--0--0--0--0--0--0--0--0--0--0--0--0--0--| 

e|-----------------------------------------0-----0--| 
B|--4--4--4--4--4--4--4--4-----------------0-----0--| 
G|--4--4--4--4--4--4--4--4--2--2--2--2--2--2--2--2--| 
D|--4--4--4--4--4--4--4--4--4--4--4--4--4--4--4--4--| 
A|--2--2--2--2--2--2--2--2--4--4--4--4--4-(4)-4-(4)-| 
E|--------------------------2--2--2--2--2-(2)-2-(2)-| 
    !  !  !  !  !  !  !  !  !  !  !  !  !  V  !  V 

e|--0-~~-----0--------0-----0-----------0-----------| 
B|--0-~~-----0--------0-----0-----------0-----------| 
G|--2-~~-----2--2--2--2--2--1--1--1--X--2--2--4-x-4-| 
D|--4-~~-----4--4--4--4--4--2--2--2--X--4--4--4-x-4-| 
A|--4-~~-----4--4--4--4--4--2--2--2--X--4--4--2-x-2-| 
E|--2-~~-----2--2--2--2--2--0--0--0--X--2--2----x---| 

e|--0~---0-----0--0--0--| 
B|--0~---0-----0--0--0--| 
G|--2~---2--2--2--2--0--| 
D|--4~---4--4--4--4--0--| 
A|--4~---4--4--4--4--0--| 
E|--2~---2--2--2--2--0--| 

Chorus: 

     1.Don't  You___             Forget   a-bout__    
   __2.Don't  You____            Forget   a-bout__  
  3. by___________________  When You__ call__ my__ 
e||--------0~~---------0~~---------0~~------0~~------| 
B||.-------0~~---------0~~---------0~~------0~~------| 
G||--2--2--2-(2)-2--2--2-(2)-1--1--1--1--1--1--1--0--| 
D||--4--4--4--4--4--4--4--0--2--2--2--2--2--2--2--0--| 
A||.-4--4--4--4--4--4--4--0--2--2--2--2--2--2--2--0--|   
E||--2--2--2--2--2--2--2--0--0--0--0--0--0--0--0--0--| 
    !  !  !  V  !  !  !  V  !  !  !  V  !  !  !  V        

1.  Me_____                 Don't,don't, don't ,don't                              
2.  Me________                 As  You  walk   on  
3.  name_______________        When__ you_ walk a___   way___________ 
e|--------0~~---------0~~---------0~~------0~~------||--0--(0)-------| 
B|--------0~~---------0~~---------0~~------0~~-----.||--0--(0)-------| 
G|--4--4--4-(4)-4--4--4-(4)-1--1--1--1--1--1--1--0--||--2--(2)-------| 
D|--4--4--4--4--4--4--4--0--2--2--2--2--2--2--2--0--||--4--(4)-------|  
A|--2--2--2--2--2--2--2--0--2--2--2--2--2--2--2--0-.||--4--(4)-------|  
E|--------------------------0--0--0--0--0--0--0--0--||--2--(2)-------|  
    !  !  !  V  !  !  !  V  !  !  !  V  !  !  !  V      

Bass and Violin Break with more Dialogue from "The Breakfast Club" 

Here's the bass tab:  
Play 3 times then double time for 4th and 5th 

G|---------------------------------------------------|    
D|.--------------------------------------------------| 
A|.-9--9--9--9--9--9--9--9--7--7--7--7--7--7--7--7---| 
E|---------------------------------------------------| 


G|---------------------------------------------------|    
D|--------------------------------------------------.| 
A|--------------------------7--7--7--7--7--7--7--7--.| 
E|--7--7--7--7--7--7--7--7---------------------------| 

Then play Chorus chords for "LA LA LA LA" 3 times 

Just strum the Chorus chords for outro one last time  

| !  Down stroke 
| V  Up Stroke 
| /  slide up 
| \  slide down 
| h  hammer-on 
| p  pull-off 
| ~  vibrato 
| +  harmonic 
| x  Mute note 
| ~~ Let Ring 


[email protected] 


	  

Full key step upFull key step up
Half key step upHalf key step up
Half key step downHalf key step down
Full key step downFull key step down
Search Paypal
auto scroll beats size up size down change color hide chords drawings
tab show chords e-chords YouTube Clip e-chords hide all tabs e-chords go to top tab