Year Long Disaster

Leda Atomica

Year Long Disaster

tabs

by  VSWORLD

save to print version add songbook text version e-mail correct tuner
chordsukulelecavacokeyboardtabbassdrumsharmonicaflute Guitar Pro
close

there isn't a video lesson for this song

chords

Leda Atomica

	  		Intro: 
 
  |-1-----2-----3-----4-----|-1-----2-----3-----4-----|-1-----2-----3-----4-----|-1-----2-----3-----4-----| 
E:|-------------------------|-------------------------|-------------------------|-------------------------| 
B:|-------------------------|-------------------------|-------------------------|-------------------------| 
G:|-------------------------|-------------------------|-------------------------|-------------------------|   
D:|-------------------------|-------------------------|-------------------------|-------------1-----------|   
A:|-----------------4p3----1|-3--h4p3---1-1-----3b----|-----------------4p3----1|-3--h4p3----1------------| 
E:|-3--------3--------------|-------------------------|-3--------3--------------|-------------------------| 
                                                                                                              (2x) 

 
  |-1-----2-----3-----4-----|-1-----2-----3-----4-----|-1-----2-----3-----4-----|-1-----2-----3-----4-----| 
E:|-------------------------|-------------------------|-------------------------|-------------------------| 
B:|-------------------------|-------------------------|-------------------------|-------------------------| 
G:|-------------------------|-------------------------|-------------------------|-------------------------| 
D:|-------------------------|-------------------------|-------------------------|-------------------------| 
A:|-----------------4p3----1|-3--h4p3---1-1-----3b----|-------------------------|-------------------------| 
E:|-3--------3--------------|-------------------------|-3----3-----3-----3-----3|------3-----3-----3-----3| 
 

Refrão: 
 
  |-1-----2-----3-----4-----|-1-----2-----3-----4-----|-1-----2-----3-----4-----|-1-----2-----3-----4-----| 
E:|-------------------------|-------------------------|-------------------------|-------------------------| 
B:|-------------------------|-------------------------|-------------------------|-------------------------| 
G:|-------------------------|-------------------------|-------------------------|-------------------------|  (2x) 
 
D:|-5 
A:|-5 
E:|-3 

Ponte: 
 
  |-1-----2-----3-----4-----|-1-----2-----3-----4-----|-1-----2-----3-----4-----|-1-----2-----3-----4-----| 
E:|-------------------------|-------------------------|-------------------------|-------------------------| 
B:|-4--h6-6----6---p4-4----6|-----4-------------------|-4--h6-6----6---p4-4----6|-----4-------------------| 
G:|-------------------------|-------5-----5 
D:|-------------------------|-------------------------|-------------------------|-------------------------| 
A:|-------------------------|-------------------------|-------------------------|-------------------------| 
E:|-------------------------|-------------------------|-------------------------|-------------------------| 
 


 
  |-1-----2-----3-----4-----|-1-----2-----3-----4-----| 
E:|-------------------------|-------------------------| 
B:|-4--h6-6----6---p4-4----6|----/9-9-----9 
G:|-------------------------|-------------------------|  
D:|-------------------------|-------------------------| 
A:|-------------------------|-------------------------| 
E:|-------------------------|-------------------------| 
 


Ponte 2: 
 
  |-1-----2-----3-----| 
E:|-------------------| 
B:|-------------------| 
G:|-0-----3-----5-----|  (48x) 
D:|-0-----3-----5-----| 
A:|-------------------| 
E:|-------------------| 
 

(Refrão) 

Outro: 
 
  |-1-----2-----3-----4-----|-1-----2-----3-----4-----|-1-----2-----3-----4-----|-1-----2-----3-----4-----| 
E:|-------------------------|-------------------------|-------------------------|-------------------------| 
B:|-4--h6-6----6---p4-4----6|-----4-------------------|-4--h6-6----6---p4-4----6|-----4-------------------| 
G:|-------------------------|-------5-----5 
D:|-------------------------|-------------------------|-------------------------|-------------------------| 
A:|-------------------------|-------------------------|-------------------------|-------------------------| 
E:|-------------------------|-------------------------|-------------------------|-------------------------| 
 

 
  |-1-----2-----3-----4-----|-1-----2-----3-----4-----|-1-----2-----3-----4-----|-1-----2-----3-----4-----|-1----2-| 
E:|-------------------------|-------------------------|-------------------------|-------------------------|--------| 
B:|-4--h6-6----6---p4-4----6|----/9-9-----9 
G:|-------------------------|-------------------------|-------------------------|-------------------------|--------| 
D:|-------------------------|-------------------------|-------------------------|-------------------------|-5--5!--| 
A:|-------------------------|-------------------------|-------------------------|-------------------------|-5--5!--| 
E:|-------------------------|-------------------------|-------------------------|-------------------------|-3--3!--| 
		  

See also:

tabs Guns N' Roses - Welcome to The Jungle tabs Guns N' Roses - Knockin' On Heaven's Door tabs 3 Doors Down - When I'm gone tabs Guns N' Roses - Don't Cry tabs Cheap Trick - The Flame tabs Aerosmith - Dream On
e-chords

Other versions:

tabs Year Long Disaster - Leda Atomica
auto scroll beats size up size down change color hide chords drawings
tab show chords e-chords YouTube Clip e-chords hide all tabs e-chords go to top tab

share