Yanni

Adagio In C Minor

Yanni

tabs

by  GUSTSILVA

save to print version add songbook text version e-mail correct tuner
chordsukulelecavacokeyboardtabbassdrumsharmonicaflute Guitar Pro
close

there isn't a video lesson for this song

chords

Adagio In C Minor

	  		

 
  Am        Em       F          C 
E|-3---------2------| -0--------------------| 
B|-----0------------| -------3-1-3---0------| 
G|---0----0------4--| -----0-------0---0----| 
D|-------------4---4| ---2------------------| 
A|-----------2------| -3---------3----------| 
E|-0----------------| ----------------------| 

   Dm       Am       Bb 
E|---------------0--| ----------------------| 
B|-1---------0------| -----------0-1-0------| 
G|-----2-4-2---0---0| -2---------------2----| 
D|---2--------------| -----3----------------| 
A|-0----------------| ---3---3--------------| 
E|-----------0------| -1-------1------------| 

   Am       Em       F          C 
E|-3---------2------| -0-------0------------| 
B|-----0------------| ---3-1-3---3---0------| 
G|---0----0------4--| -------------0---0----| 
D|-------------4---4| -----2----------------| 
A|-----------2------| -3---------3----------| 
E|-0----------------| ----------------------| 

   Dm        Am         Bb 
E|---------------0----| --------------------| 
B|---0-1-0---0--------| -----------0-1-0----| 
G|-2-------2---0---2-0| -2---------------2--| 
D|-----2--------------| -----3--------------| 
A|-0------------------| ---3---3------------| 
E|-----------3--------| -1-------1----------| 

   C                    Am 
E|-------------------| ---------------------| 
B|-0-----------------| 0---------------0----| 
G|-----0-------------| --0---------0--------| 
D|---2----2----2---4-| ----4--2--4-------2--| 
A|-----------2-------| ---------------------| 
E|-0-----------------| 0---------0----------| 

   Dm                   G 
E|------------------| ----------------------| 
B|-1----------------| ---------------3-1----| 
G|-----2----0-------| -2-0---0---2----------| 
D|---2----2---2-4-2-| -----4-------0--------| 
A|-0----------------| -5--------------------| 
E|------------------| ----------------------| 
  
   C                    Am 
E|-------------------2| -3-------2----------| 
B|-1-0-0-----0--0--3--| -----0--------------| 
G|--------2-----------| ---0---0-----4------| 
D|-----0--------------| -----------4---4----| 
A|-3------------------| ---------2----------| 
E|-----------3-----2--| -0------------------| 

   Dm                   G 
E|-0-------0----------| -------------0------| 
B|---3-1-3---3--------| -----0-1-0----------| 
G|---------------0----| -2---------2-----0--| 
D|-----2-------0---0--| -------2-------2----| 
A|-3------------------| -0------------------| 
E|-----------3--------| --------------------| 

   C                    Am              Em 
E|--------------------| -----------------2--| 
B|-------------0-1-0--| -0------------0-----| 
G|-2-----------------2| -----0-----0--------| 
D|-----3--------------| ---2---2------------| 
A|---3---3------------| --------------------| 
E|-1---------1--------| -0-------0----------| 

   F         C          Dm              Am 
E|-3---------2--------| -0---------0--------| 
B|-----0---0----------| -----3-1-3---3------| 
G|---0---2-------4----| -----------------0--| 
D|-----2-------4---4--| -------2-------0---0| 
A|-0---------2---2----| -3---------------2--| 
E|--------------------| ---------3---3------| 

   Bb                   C 
E|---------------0----| --------------------| 
B|---0-1-0---0--------| -----------0-1-0----| 
G|-2-------2---0---0--| -2---------------0--| 
D|-----2--------------| -----3--------------| 
A|-0------------------| ---3---3------------| 
E|-----------0---0----| -1-------1----------| 

   Am        Em         F               C 
E|--------------------| --------------------| 
B|-------------0-1-0--| -0------------------| 
G|-2-----------------2| -----0-----0--------| 
D|-----3--------------| ---2---2-4---4-2----| 
A|---3---3------------| --------------------| 
E|-1---------1--------| -0-------0----------| 

   Dm       Am       Bb 
E|---------------0--| ----------------------| 
B|-1---------0------| -----------0-1-0------| 
G|-----2-4-2---0---0| -2---------------2----| 
D|---2--------------| -----3----------------| 
A|-0----------------| ---3---3--------------| 
E|-----------0------| -1-------1------------| 

   Bb 
E|--------------------| 
B|-----------3-1-0----| 
G|-----0-----------0--| 
D|-4-4---4------------| 
A|--------------------| 
E|-0---------0--------| 

   C                    Em 
E|--------------------| --------------------| 
B|-1------------------| ---------------3-1--| 
G|-----0-----0--------| -2---0---0-2--------| 
D|---2---2-----2-4-2--| -0-----4-----0------| 
A|-0------------------| --------------------| 
E|--------------------| --------------------| 

   Am                   Dm 
E|-------------------| ---------------------| 
B|-1-0-0-----0-------| --0-------------0----| 
G|-------2---------0-| ------0-------0------| 
D|-----0-------0-----| --------4-2-4-----2--| 
A|-------------------| ---------------------| 
E|-3---------3---2---| --0---------0--------| 

   G                    C 
E|--------------------| --------------------| 
B|-1------------------| ---------------3-1--| 
G|-----2-----0--------| -2---0---0-2--------| 
D|---2---2-----2-4-2--| -------4-----0------| 
A|-0------------------| -5------------------| 
E|--------------------| --------------------| 

   Am                   Dm 
E|-----------------2-| --3---------2--------| 
B|-1-0-0-----0-0-3---| ------0--------------| 
G|-------2-----------| ----0---0-------4----| 
D|-----0-------------| --------------4---4--| 
A|-------------------| ------------2--------| 
E|-3---------3---2---| --0------------------| 

   G                    C 
E|-0-------0---------| ------------------0--| 
B|---3-1-3---3-------| ------0-1-0---0------| 
G|---------------0---| --2---------2---0---0| 
D|-----2-------0---0-| --------2------------| 
A|-3-------------2---| --0------------------| 
E|-----------3-------| --------------0---0--| 

   Am           Em 
E|--------------------| 
B|-----------1-0-1-0--| 
G|-2-----0-----------0| 
D|-----2---3----------| 
A|---3----------------| 
E|-1---1---0-1-1------| 

   F         C          Dm       Am 
E|--------------------| ---------------0----| 
B|------------0-1-0---| -0---------0-1-1-1--| 
G|-2----------------2-| -------0-2---2---2--| 
D|-----0--------------| -----0--------------| 
A|---0---0------------| ---2----------------| 
E|-1--------1---------| -3---------3--------| 

   Bb                   Am      Em 
E|------------------| ----------------------| 
B|-3----------------| ----------3-----1-----| 
G|-4----------------| -------0-----0-----0--| 
D|-----5---------5--| ---0-2----------2-----| 
A|---5---5-----5----| -3--------3-----------| 
E|-3---------3------| ----------------------| 

   F        C           Dm      Am 
E|-------0------------| ---------0----------| 
B|-3---1----3--1------| -----------3-1-0----| 
G|---------------2----| -------2------------| 
D|---2-------------2--| -3---3---0----------| 
A|-0--------0---------| ---5----------------| 
E|--------------------| --------------------| 

   Bb 
E|--------------------| --------------------| 
B|-0------------------| ---------3-----1----| 
G|-------------0------| -------0-----0---0--| 
D|---0---2---0---3-0--| -2---2---------2----| 
A|-----0--------------| ---3-----3----------| 
E|-3---------3--------| --------------------| 

   C 
E|-------0------------| ---------0----------| 
B|-3---1----3--1------| -----------3-1-0----| 
G|---------------2----| -------2------------| 
D|---2-------------2--| -3---3---0----------| 
A|-0--------0---------| ---5----------------| 
E|--------------------| --------------------| 

   F                            Dm7              
E|--------------------| -0-------3-----5----| 
B|-0-----1---3---1-3--| --------------------| 
G|-------------0------| -------0-----0---0--| 
D|---0----------------| -----2---2-----3----| 
A|-----0-----2--------| ---3----------------| 
E|-3------------------| --------------------| 

   Gm7                  C7 
E|-0------------------| -----------3---5----| 
B|-------3---------131| ---0---------0---0--| 
G|-----2---------2----| -------0---0--------| 
D|---0--------0-------| -----0---0----------| 
A|--------------------| ---3----------------| 
E|-1--------1---------| --------------------| 

   F                    Gm7 
E|-0--------0-------0-| --1------------0----| 
B|-----1-3-------1----| -------3-----3---1--| 
G|---0--------0-------| -----2---2-2--------| 
D|--------------------| --0--------0--------| 
A|-3--------3---------| --------------------| 
E|--------------------| --------------------| 

   C                    F                       Gm7 
E|-----------3-5-3-1--| -0------------------|   |---------| 
B|-3------------------| ---3-1-0---1--3--0--|   |-1-------| 
G|-----0-----0--------| ---------2----------|2/4|-------2-| 
D|---0---0------------| --------------------|   |----2----| 
A|--------------------| -3-------0----------|   |-0-------| 
E|-3------------------| --------------------|   |---------| 

   C                    F 
E|--------------------| --------------------| 
B|-3-----------1-0----| -0---1---------1----| 
G|-----2-----------2--| -------------2------| 
D|---0---0------------| ---0---0---0--------| 
A|----------1---------| --------------------| 
E|-1------------------| -1-------1----------| 

   Dm                   Gm7                     Csus4 
E|-1------------------| --------------------|--------------------| 
B|-3------------------| -3------------------|-6------------------| 
G|-2------------------| -3------------------|-5------------------| 
D|-0------------------| -3------------------|-5------------------| 
A|--------------------| --------------------|-3------------------| 
E|--------------------| -3------------------|--------------------| 

   C                    D 
E|--------------------| -2------------------| 
B|-5------------------| -3------------------| 
G|-5------------------| -2------------------| 
D|-5------------------| -0------------------| 
A|-3------------------| --------------------| 
E|--------------------| --------------------| 
		  

Full key step upFull key step up
Half key step upHalf key step up
Half key step downHalf key step down
Full key step downFull key step down
hide glossary

See also:

tabs Panic! At The Disco - Build God Then We'll Talk tabs Miley Cyrus - 7 Things tabs Johan Sebastian Bach - Gavote II tabs Ne-yo - So Sick (ver.2) tabs Matisyahu - Refuge tabs MC Hammer - U cant touch this
e-chords

Other versions:

tabs Yanni - Adagio In C Minor
auto scroll beats size up size down change color hide chords drawings
tab show chords e-chords YouTube Clip e-chords hide all tabs e-chords go to top tab

share