Xutos e Pontapés

home > Xutos e Pontapés

Quem E Quem Tab

Xutos e Pontapés

Difficulty: ExpertExpert

by PPRocknroll

tuner correct add songbook print version text version save to e-mail
chordsukulelecavacokeyboardtabbassdrumsharmonicsflute Guitar Pro
chords

Quem E Quem

  		INTRO: 
e/--------------------------------------------------------------------------------------------------------------    
b/-------------------------------------------------------------------------------------------------------------- 
g/-----5----5-----5---------5--5-----3---3---3---3---3------5--5------------------------------------------------ X3 
d/-----5----5-----5---------5--5-----3---3---3---3---3------5--5------------------------------------------------ 
a/-----3----3-----3---------3--3-----1---1---1---1---1------3--3------------------------------------------------ 
e/-------------------------------------------------------------------------------------------------------------- 

e--------------------------------------- 
b--------------------------------------- 
g-------------3------------------------- 
d--5----------3---3------5-------------- 
a--5----------1---3------5-------------- 
e--3--------------1------3-------------- 

o resto é com os mesmos acordes e decerto que têm bons ouvidos para descobrir o resto :) 
	  

Search Paypal
auto scroll beats size up size down change color hide chords drawings
tab show chords e-chords YouTube Clip e-chords hide all tabs e-chords go to top tab