Xavier Rudd

No Woman, No Cry Tab

Xavier Rudd

Difficulty: EasyEasy

tuner correct add songbook print version text version save to e-mail
chordsukulelecavacokeyboardtabbassdrumsharmonicsflute Guitar Pro
close

there isn't a video lesson for this song

chords

No Woman, No Cry

  		Words and Music by V.Ford/Bob Marley  
Arranged by Xavier Rudd  
 
Transcribed by Troy Wilson, Blue Note College of Music and Performance  
1st Floor, 13 Wells St, Frankston, Vic 3199. Telephone: 9781 4467. 
 
Lapslide Tuning - E B E G# B E  
 
 
Intro  
 
|------x------x---|----x--------x-----|  
|------x------x---|----x--------x-----|  
|------x------x---|----x--------x-----|  
|-2s4--x---7--x---|-9--x-5-(5)--x---0h|  
|-----------------|-------------------|  
|-0------x-7----x-|-9----5-(5)----0---|  
 
 
|------x-----------|------x----------------|  
|------x-----------|------x----------------|  
|------x-----------|------x----------------|  
|-2s4--x---5-4-2-0-|-(0)--x-------------0--|  
|------------------|--------0h2-3-4s5-0----|  
|--------x-5-4-2-0-|-(0)-------------------|  
 
 
|-----x------x---|----x--------x-----|  
|-----x------x---|----x--------x-----|  
|-----x------x---|----x--------x-----|  
|-2s4-x---7--x---|-9--x-5-(5)--x---0h|  
|----------------|-------------------|  
|-0-----x-7----x-|-9----5-(5)----0---|  
 
 
|------x-----------|------x---------------||  
|------x-----------|------x---------------||  
|------x-----------|------x---------------||  
|-2s4--x---5-4-2-0-|-(0)--x-------------0-||  
|------------------|--------0h2-3-4s5-0---||  
|--------x-5-4-2-0-|-(0)------------------||  
 
 
Chorus  
|-----x------x---|----x--------x-----|------x-----------|------x---------------|  
|-----x------x---|----x--------x-----|------x-----------|------x---------------|  
|-----x------x---|----x--------x-----|------x-----------|------x---------------|  
|-2s4-x---7--x---|-9--x-5-(5)--x---0h|=2s4--x---5-4-2-0-|-(0)--x-------------0-|  
|----------------|-------------------|------------------|--------0h2-3-4s5-0---|  
|-0-----x-7----x-|-9----5-(5)----0---|--------x-5-4-2-0-|-(0)------------------|  
 
 
|-----x------x---|----x--------x-----|------x-----------|------x-------------||  
|-----x------x---|----x--------x-----|------x-----------|------x-------------||  
|-----x------x---|----x--------x-----|------x-----------|------x-------------||  
|-2s4-x---7--x---|-9--x-5-(5)--x---0h|=2s4--x---5-4-2-0-|-(0)--x-------------||  
|----------------|-------------------|------------------|--------0h2-3-4s5---||  
|-0-----x-7----x-|-9----5-(5)----0---|--------x-5-4-2-0-|-(0)----------------||  
 
 
Verse  
|----x------x---|----x--------x---|----x------x---|----x--------x---|  
|----x------x---|----x--------x---|----x------x---|----x--------x---|  
|----x------x---|----x--------x---|----x------x---|----x--------x---|  
|-0--x---7--x---|-9--x-5-(5)--x---|-0--x---7--x---|-9--x-5-(5)--x---|  
|---------------|-----------------|---------------|-----------------|  
|-0----x-7----x-|-9----5-(5)----x-|-0----x-7----x-|-9----5-(5)----x-|  
 
 
|----x------x---|----x--------x---|----x------x---|----x--------x---|  
|----x------x---|----x--------x---|----x------x---|----x--------x---|  
|----x------x---|----x--------x---|----x------x---|----x--------x---|  
|-0--x---7--x---|-9--x-5-(5)--x---|-0--x---7--x---|-9--x-5-(5)--x---|  
|---------------|-----------------|---------------|-----------------|  
|-0----x-7----x-|-9----5-(5)----x-|-0----x-7----x-|-9----5-(5)----x-|  
 
 
|----x------x---|----x--------x---|----x------x---|----x--------x---|  
|----x------x---|----x--------x---|----x------x---|----x--------x---|  
|----x------x---|----x--------x---|----x------x---|----x--------x---|  
|-0--x---7--x---|-9--x-5-(5)--x---|-0--x---7--x---|-9--x-5-(5)--x---|  
|---------------|-----------------|---------------|-----------------|  
|-0----x-7----x-|-9----5-(5)----x-|-0----x-7----x-|-9----5-(5)----x-|  
 
 
|----x------x---|----x--------x---|--------------|----------------------||  
|----x------x---|----x--------x---|--------------|----------------------||  
|----x------x---|----x--------x---|--------------|----------------------||  
|-0--x---7--x---|-9--x-5-(5)--x---|-0--0---7--7--|-0--(0)-------------0-||  
|---------------|-----------------|--------------|--------0h2-3-4s5-0---||  
|-0----x-7----x-|-9----5-(5)----x-|-0----0-7-----|-0--(0)---------------||  
 
 
Chorus  
|-----x------x---|----x--------x-----|------x-----------|------x---------------|  
|-----x------x---|----x--------x-----|------x-----------|------x---------------|  
|-----x------x---|----x--------x-----|------x-----------|------x---------------|  
|-2s4-x---7--x---|-9--x-5-(5)--x---0h|=2s4--x---5-4-2-0-|-(0)--x-------------0-|  
|----------------|-------------------|------------------|--------0h2-3-4s5-0---|  
|-0-----x-7----x-|-9----5-(5)----0---|--------x-5-4-2-0-|-(0)------------------|  
 
 
|-----x------x---|----x--------x-----|  
|-----x------x---|----x--------x-----|  
|-----x------x---|----x--------x-----|  
|-2s4-x---7--x---|-9--x-5-(5)--x---0h|  
|----------------|-------------------|  
|-0-----x-7----x-|-9----5-(5)----0---|  
 
 
|------x-----------|------^0-------------0h=||  
|------x-----------|------^0----------------||  
|------x-----------|------^0----------------||  
|-2s4--x---5-4-2-0-|-(0)--^0----------------||  
|------------------|---------0h2-3-4s5------||  
|--------x-5-4-2-0-|-(0)---------------0----||  
 
 
Guitar Solo  
|-2s4------7------|-9----4s5-(5)--------0h|  
|------x---7------|-9----4s5-(5)----------|  
|------x------x---|----x----------<5>-----|  
|------x---7--x---|-9--x-4s5-(5)--<5>-----|  
|-----------------|-----------------------|  
|--------x------x-|-------------------0---|  
 
 
|-2s4s===5s4s2p0-|-(0)------------------0s=|  
|----------------|----------0h2-3-4s5------|  
|----------------|------<5>----------------|  
|----------------|------<5>----------------|  
|----------------|-------------------------|  
|----------------|--------------------0----|  
 
 
|-2s4------7------|-9----4s5-(5)------0h|  
|------x---7------|-9----4s5-(5)--------|  
|------x------x---|----x----------x-----|  
|------x---7--x---|-9--x-4s5-(5)--x-----|  
|-----------------|---------------------|  
|--------x------x-|-----------------0---|  
 
 
|-2s4-----5-4-2-0-|-(0)------------------||  
|------x----------|--------0h2-3-4s5-----||  
|------x----------|------x---------------||  
|------x----------|------x-------------0-||  
|-----------------|------------------0---||  
|-----------------|----------------------||  
 
 
Harmonica Solo  
|-----x------x---|----x--------x-----|------x-----------|------x---------------|  
|-----x------x---|----x--------x-----|------x-----------|------x---------------|  
|-----x------x---|----x--------x-----|------x-----------|------x---------------|  
|-2s4-x---7--x---|-9--x-5-(5)--x---0h|=2s4--x---5-4-2-0-|-(0)--x-------------0-|  
|----------------|-------------------|------------------|--------0h2-3-4s5-0---|  
|-0-----x-7----x-|-9----5-(5)----0---|--------x-5-4-2-0-|-(0)------------------|  
 
 
|-----x------x---|----x--------x-----|------x-----------|------x---------------|  
|-----x------x---|----x--------x-----|------x-----------|------x---------------|  
|-----x------x---|----x--------x-----|------x-----------|------x---------------|  
|-2s4-x---7--x---|-9--x-5-(5)--x---0h|=2s4--x---5-4-2-0-|-(0)--x-------------0-|  
|----------------|-------------------|------------------|--------0h2-3-4s5-0---|  
|-0-----x-7----x-|-9----5-(5)----0---|--------x-5-4-2-0-|-(0)------------------|  
 
 
|-----x------x---|----x--------x-----|------x-----------|------x---------------|  
|-----x------x---|----x--------x-----|------x-----------|------x---------------|  
|-----x------x---|----x--------x-----|------x-----------|------x---------------|  
|-2s4-x---7--x---|-9--x-5-(5)--x---0h|=2s4--x---5-4-2-0-|-(0)--x-------------0-|  
|----------------|-------------------|------------------|--------0h2-3-4s5-0---|  
|-0-----x-7----x-|-9----5-(5)----0---|--------x-5-4-2-0-|-(0)------------------|  
 
 
|-----x------x---|----x--------x-----|------x-----------|------x-------------||  
|-----x------x---|----x--------x-----|------x-----------|------x-------------||  
|-----x------x---|----x--------x-----|------x-----------|------x-------------||  
|-2s4-x---7--x---|-9--x-5-(5)--x---0h|=2s4--x---5-4-2-0-|-(0)--x-------------||  
|----------------|-------------------|------------------|--------0h2-3-4s5---||  
|-0-----x-7----x-|-9----5-(5)----0---|--------x-5-4-2-0-|-(0)----------------||  
 
 
Verse  
|----x------x---|----x--------x---|----x------x---|----x--------x---|  
|----x------x---|----x--------x---|----x------x---|----x--------x---|  
|----x------x---|----x--------x---|----x------x---|----x--------x---|  
|-0--x---7--x---|-9--x-5-(5)--x---|-0--x---7--x---|-9--x-5-(5)--x---|  
|---------------|-----------------|---------------|-----------------|  
|-0----x-7----x-|-9----5-(5)----x-|-0----x-7----x-|-9----5-(5)----x-|  
 
 
|----x------x---|----x--------x---|----x------x---|----x--------x---|  
|----x------x---|----x--------x---|----x------x---|----x--------x---|  
|----x------x---|----x--------x---|----x------x---|----x--------x---|  
|-0--x---7--x---|-9--x-5-(5)--x---|-0--x---7--x---|-9--x-5-(5)--x---|  
|---------------|-----------------|---------------|-----------------|  
|-0----x-7----x-|-9----5-(5)----x-|-0----x-7----x-|-9----5-(5)----x-|  
 
 
|----x------x---|----x--------x---|----x------x---|----x--------x---|  
|----x------x---|----x--------x---|----x------x---|----x--------x---|  
|----x------x---|----x--------x---|----x------x---|----x--------x---|  
|-0--x---7--x---|-9--x-5-(5)--x---|-0--x---7--x---|-9--x-5-(5)--x---|  
|---------------|-----------------|---------------|-----------------|  
|-0----x-7----x-|-9----5-(5)----x-|-0----x-7----x-|-9----5-(5)----x-|  
 
 
|----x------x---|----x--------x---|--------------|------||  
|----x------x---|----x--------x---|--------------|------||  
|----x------x---|----x--------x---|--------------|------||  
|-0--x---7--x---|-9--x-5-(5)--x---|-0--0---7--7--|-0----||  
|---------------|-----------------|--------------|------||  
|-0----x-7----x-|-9----5-(5)----x-|-0----0-7-----|-0----||  
 
 
Bridge  
|----x------x---|----x------x---|----x------x---|----x------x---|  
|----x------x---|----x------x---|----x------x---|----x------x---|  
|----x------x---|----x------x---|----x------x---|----x------x---|  
|-0--x---7--x---|-9--x---5--x---|-0--x---7--x---|-9--x---5--x---|  
|---------------|---------------|---------------|---------------|  
|-0----x-7----x-|-9----x-5----x-|-0----x-7----x-|-9----x-5----x-|  
 
 
|----x------x---|----x------x---|----x------x---|----x------x---||  
|----x------x---|----x------x---|----x------x---|----x------x---||  
|----x------x---|----x------x---|----x------x---|----x------x---||  
|-0--x---7--x---|-9--x---5--x---|-0--x---7--x---|-9--x---5--x---||  
|---------------|---------------|---------------|---------------||  
|-0----x-7----x-|-9----x-5----x-|-0----x-7----x-|-9----x-5----x-||  
 
 
Outro 
|----x------x---|------x--------x-----|  
|----x------x---|------x--------x-----|  
|----x------x---|------x--------x-----|  
|-0--x---7--x-9-|-(9)--x-5-(5)--x---0h|  
|---------------|---------------------|  
|-0----x-7----9-|-(9)----5-(5)----0---|  
 
 
|------x-----------|------x---------------|  
|------x-----------|------x---------------|  
|------x-----------|------x---------------|  
|-2s4--x---5-4-2-0-|-(0)--x-------------0-|  
|------------------|--------0h2-3-4s5-0---|  
|--------x-5-4-2-0-|-(0)------------------|  
 
 
|-----x------x---|----x--------x-----|------x-----------|--------*|  
|-----x------x---|----x--------x-----|------x-----------|--------*|  
|-----x------x---|----x--------x-----|------x-----------|--------*|  
|-2s4-x---7--x---|-9--x-5-(5)--x---0h|=2s4--x---5-4-2-0-|-(0)----*|  
|----------------|-------------------|------------------|--------*|  
|-0-----x-7----x-|-9----5-(5)----0---|--------x-5-4-2-0-|-(0)----*|  
 
 
Tablature Legend  
----------------  
h   - hammer-on  
p   - pull-off  
b   - bend  
pb  - pre-bend  
r   - bend release (if no number after the r, then release immediately)  
/\  - slide into or out of (from/to "nowhere")  
s   - legato slide  
S   - shift slide  
  - natural harmonic  
{n}  - artificial harmonic  
n(n) - tapped harmonic  
~   - vibrato  
tr  - trill  
T   - tap  
TP  - trem. picking  
PM  - palm muting  
\n/  - tremolo bar dip; n = amount to dip  
\n  - tremolo bar down  
n/  - tremolo bar up  
/n\  - tremolo bar inverted dip  
=   - hold bend; also acts as connecting device for hammers/pulls  
<>  - volume swell (louder/softer)  
x   - on rhythm slash represents muted slash  
o   - on rhythm slash represents single note slash  
 
Misc Legend  
-----------  
|  - bar  
||  - double bar  
||o - repeat start  
o|| - repeat end  
*|  - double bar (ending)  
:  - bar (freetime)  
$  - Segno  
&  - Coda  
Tempo markers -  = BPM(8/16=s8/s16), where s8 = swing 8ths, s16 = swing 16ths  
 
 

	  

Full key step upFull key step up
Half key step upHalf key step up
Half key step downHalf key step down
Full key step downFull key step down
auto scroll beats size up size down change color hide chords drawings
tab show chords e-chords YouTube Clip e-chords hide all tabs e-chords go to top tab

share with facebook

Search Paypal