Wylder

Kings Of Summer

Wylder

tabs

by  UBIRBOMFIM

save to print version add songbook text version e-mail correct tuner
chordsukulelecavacokeyboardtabbassdrumsharmonicaflute Guitar Pro
close

there isn't a video lesson for this song

chords

Kings Of Summer

	  		Standard Tuning -  
 

Intro 
e|12s14-----------------12s14------------------------------------| 
B|-------14--12---14------------14---12--------------------------| 
G|---------------------------------------------------------------| 
D|---------------------------------------------------------------| 
A|---------------------------------------------------------------| 
E|---------------------------------------------------------------| 

Intro 
e|12s14-----------------12---------------------------------------| 
B|-------14--12---14----------14---12----10----------------------| 
G|---------------------------------------------------------------| 
D|---------------------------------------------------------------| 
A|---------------------------------------------------------------| 
E|---------------------------------------------------------------| 


Chords - Shift notes up 2 for capo 
e|3------------0-------------------------------------------------| 
B|0------------1-------------------------------------------------| 
G|0------------0-------------------------------------------------| 
D|0------------2-------------------------------------------------| 
A|2------------3-------------------------------------------------| 
E|3--------------------------------------------------------------| 


Guitar Fill 
e|---------------------------------------------------------------| 
B|---------------------------------------------------------------| 
G|---------------------------------------------------------------| 
D|---------------------------------------------------------------| 
A|--------7-7-7s9-9s12s14h12-------------------------------------| 
E|5-5s9----------------------------------------------------------| 


e|---------------------------------------------------------------| 
B|---------------------------------------------------------------| 
G|---------------------------------------------------------------| 
D|---------------------11s9--------------------------------------| 
A|--------7-7-7s9-9s12-------------------------------------------| 
E|5-5s9----------------------------------------------------------| 

Chords - Shift notes up 2 for capo - Used During Verse and Chorus 
e|3------------0-------------------------------------------------| 
B|0------------1-------------------------------------------------| 
G|0------------0-------------------------------------------------| 
D|0------------2-------------------------------------------------| 
A|2------------3-------------------------------------------------| 
E|3--------------------------------------------------------------| 


High-Note Breakdown 
e|5---9---------5----9-----5-------------------------------------| 
B|------------------------------7----------7---7-----------------| 
G|---------------------------------------------------------------| 
D|---------------------------------------------------------------| 
A|---------------------------------------------------------------| 
E|---------------------------------------------------------------| 


Chord Breakdown - Shift notes up 2 for capo 
e|3---3-3-------3-0---0-0----0-3-------------------------------------| 
B|0---0-0-------0-1---1-1----1-0-------------------------------------| 
G|0---0-0-------0-0---0-0----0-0-------------------------------------| 
D|0---0-0-------0-2---2-2----2-0-------------------------------------| 
A|2---2-2-------2-3---3-3----3-2-------------------------------------| 
E|3---3-3-------3--------------3-------------------------------------| 



************************************ 

| h  Hammer-on 
| s slide  

************************************ 
		  

See also:

tabs Deep Purple - Burn tabs Deep Purple - No No No tabs Deep Purple - Smoke on the water(ver. 2) tabs Deep Purple - Time To Kill tabs Deep Purple - Smoke on The Water (ver.3) tabs Deep Purple - Fireball
e-chords

Other versions:

tabs Wylder - Kings Of Summer
auto scroll beats size up size down change color hide chords drawings
tab show chords e-chords YouTube Clip e-chords hide all tabs e-chords go to top tab

share