Wolfmother

My Tangerine Dream

Wolfmother

tabs

by  TERCMORAES

save to print version add songbook text version e-mail correct tuner
chordsukulelecavacokeyboardtabbassdrumsharmonicaflute Guitar Pro
close

there isn't a video lesson for this song

chords

My Tangerine Dream

	  		#^T = Bend up 1 tone (2 semi-tones) 

Intro: 

E---------------------------------------------| 
B---------------------------------------------| 
G---------------------------------------------| 
D-11-11-11-------------11----------11-13^T-11-| 
A-11-11-11-------11-13-------11-13------------| 
E-09-09-09-11-13------------------------------| 

E---------------------------------------------| 
B---------------------------------------------| 
G---------------------------------------------| 
D-11-11-11-------------11----------11---------| 
A-11-11-11-------11-13-------11-13----11------| 
E-09-09-09-11-13------------------------------| 

Verse: 

E--------------------| 
B--------------------| 
G--------------------| 
D-11-----13-13^T-11--| 
A-11-----------------| 
E-09-----------------| 

E--------------------| 
B--------------------| 
G--------------------| 
D-09------06---------| 
A-09------06---------| 
E-07------04---------| 

Chorus: 

E--------------------| 
B--------------------| 
G-06-06/09-09--------| 
D-06-06/09-09-----09-| 
A-04-04/07-09-----09-| 
E-04-04/07-09-----07-| 

E--------------------| 
B--------------------| 
G----------11^T------| 
D-11--11-------------| 
A-11--11-------------| 
E-09--09-------------| 

Sometimes this it's played like this. Listen for which bars it's done in: 

E--------------------| 
B--------------------| 
G-06-08/09-09--------| 
D-06-08/09-09-----09-| 
A-04-06/07-09-----09-| 
E-04-06/07-09-----07-| 

Haven't done the solo exactly. This is what I've been using: 

E-------------------------------------| 
B-------------------------------------| 
G-------------------------------------| 
D-------------11-----------11-13^T-11-| 
A-------11-13--------11-13------------| 
E-11-13-------------------------------| 

E-------------------------------------| 
B-------------------------------------| 
G-------------------------------13-15-| 
D----11-13/15-13-11----11-13/15-------| 
A-13----------------13----------------| 
E-------------------------------------| 

E-14----------------------------------| 
B-16-16-14-12-14^T-12-----------------| 
G---------------------13--------11-13-| 
D-------------------------11-13-------| 
A-------------------------------------| 
E-------------------------------------| 

E--------------------------------------| 
B--------------------------------------| 
G-------------------------------13-15\-| 
D----11-13/15-13-11----11-13/15--------| 
A-13----------------13-----------------| 
E--------------------------------------| 
		  

See also:

tabs Powderfinger - My Happiness tabs The Screaming Jets - Better tabs John Butler Trio - Pickapart tabs Powderfinger - Sunsets (Acoustic) tabs Xavier Rudd - Green Spandex tabs The Veronicas - Everything I'm Not
e-chords

Other versions:

tabs Wolfmother - My Tangerine Dream
auto scroll beats size up size down change color hide chords drawings
tab show chords e-chords YouTube Clip e-chords hide all tabs e-chords go to top tab

share